PrimaNota.ru - самый крупный в мире бесплатный архив песенных текстов, аккордов, табулатур и нот


Deftones - Mx - аккорды и текст, таба, бас-таба, видео

Регистрация Запомнить меня
Войти через:  Facebook Google Twitter Vk Yandex Mail.ru

Deftones - Mx - аккорды и текст, таба, бас-таба, видео

Печатать
Просмотров: 213
Авторы: Deftones

Mx
Deftones
		   t. See http://www..net/faq/ for more information.                     #
#-----------------------------------------------------------------------------#


SONG:MX
BY:DEFTONES
ALBUM:AROUND THE FUR
TUNING:DROPED D AND HALF STEP DOWN.
TABBED BY joshtonkin

played with distorted electric guitar.

   INTRO RIFF   [fig 1]
1------------------------------
2------------------------------
3-----------------------------
4-1----0---0---3--4--4--------
5-1----0---0---3--4--4-------
6-1----0---0---3--4--4--------

END INTRO  [fig 2]

1----------------
2----------------
3-----------------
4-2--2--2--1--1--1
5-2--2--2--1--1--1
6-2--2--2--1--1--1
VERSE RIFF   [fig 3]

1---------------------------
2---------------------------
3---------------------------
4--4---4---5---4------------
5--4---4---5---4-------------
6--4---4---5---4------------


CHOURUS RIFF [fig 4]

1---------------------------
2--------------------------
3--------------------------
4-4-4-4-4---4-4-4-4---------
5-4-4-4-4---4-4-4-4--------
6-4-4-4-4---4-4-4-4--------
chourus continued
1-----------------------------
2-----------------------------
3-----------------------------
4-4-4-4-4---4-4-4-4--4-5--5-8--
5-4-4-4-4---4-4-4-4--4-5--5-8-
6-4-4-4-4---4-4-4-4--4-5--5-8---     
Добавлено: 07.06.2013
Другие материалы по этой песне:

Страница создана 08.03.2012
http://primanota.ru/deftones/mx-chords.htm
Привет, Гость.
Предлагаем пройти революционный курс по гитаре.
Подарок от PrimaNota.Ru, забирай!