PrimaNota.ru - самый крупный в мире бесплатный архив песенных текстов, аккордов, табулатур и нот


Deftones - Combat - текст песни, таба, видео

Регистрация Запомнить меня
Войти через:  Facebook Google Twitter Vk Yandex Mail.ru

Deftones - Combat - текст песни, таба, видео

Печатать
Просмотров: 196
Авторы: Deftones

-------------------------------------------------------------------------------
Combat - Deftones
-------------------------------------------------------------------------------
Tabbed by: Cyrus

Tuning: Ab,Eb,Ab,Db,Gb,Bb,Eb

I believe Steph plays this song with a baritone 7 string tuned to F or F# but my I don't 
my Ibanez can handle that low of a tuning, so if you transpose these chords for that 
riff 2 is probably an octave lower

Riff 1
eb|-----------------------------------------------|
Bb|-----------------------------------------------|
Gb|-----------------------------------------------|
Db|-----------------------------------------------|
Ab|----------------11-------8--8--8--8--8--8--8---|
Eb|----8----8--8--------8-------------------------|
Ab|-----------------------------------------------|

eb|-----------------------------------------------|
Bb|-----------------------------------------------|
Gb|-----------------------------------------------|
Db|----------------10-----------------------------|
Ab|-------------------------8--8--8--8--8--8--8---|
Eb|----8----8--8--------8-------------------------|
Ab|-----------------------------------------------|

eb|-----------------------------------------------|
Bb|-----------------------------------------------|
Gb|-----------------------------------------------|
Db|----------------10-----------------------------|
Ab|-------------------------8--8--10--10--8--8--8-|
Eb|----8----8--8--------8-------------------------|
Ab|-----------------------------------------------|

Riff 2
eb|-----------------------------------------------------|
Bb|-----------------------------------------------------|
Gb|-----------------------------------------------------|
Db|----12--12--12--12--12--12--12--12--12--12--12--12---|
Ab|----10--10--10--10--10--10--10--10--10--10--10--10---|
Eb|----10--10--10--10--10--10--10--10--10--10--10--10---|
Ab|----10--10--10--10--10--10--10--10--10--10--10--10---|

eb|-----------------------------------------------------|
Bb|-----------------------------------------------------|
Gb|-----------------------------------------------------|
Db|----12--12--12--12--12--12--12--12--12--12--12--12---|
Ab|----10--10--10--10--10--10--10--10--10--10--10--10---|
Eb|----10--10--10--10--10--10--10--10--10--10--10--10---|
Ab|----10--10--10--10--10--10--10--10--10--10--10--10---|

Now this first chord comes in everytime you restart this riff
eb|------------------------------------------------------|
Bb|------------------------------------------------------|
Gb|------------------------------------------------------|
Db|----15---12--12--12--12--12--12--12--12--12--12--12---|
Ab|----13---10--10--10--10--10--10--10--10--10--10--10---|
Eb|----13---10--10--10--10--10--10--10--10--10--10--10---|
Ab|----13---10--10--10--10--10--10--10--10--10--10--10---|


Riff 3
    Let chords ring (listen for right timing)
eb|--------|-|---------------------------|-|
Bb|--------|o|---------------------------|o|
Gb|--------|-|---------------------------|-|
Db|----10--|-|-----8-------7-------5-----|-|  x2
Ab|----8---|-|-----6-------5-------3-----|-|
Eb|----8---|o|-----6-------5-------3-----|o|
Ab|----8---|-|-----6-------5-------3-----|-|

eb|-|--------------------------------------------------------|-|
Bb|o|--------------------------------------------------------|o|
Gb|-|--------------------------------------------------------|-|
Db|-|---15--15--15--15--15--15--15----5--5--5--5--5--5--5----|-|  x3
Ab|-|---x---x---x---x---x---x---x-----x--x--x--x--x--x--x----|-|
Eb|o|---13--13--13--13--13--13--13----3--3--3--3--3--3--3----|o|
Ab|-|--------------------------------------------------------|-|


Riff 4
eb|-------------------------------------------------------|
Bb|-------------------------------------------------------|
Gb|-------------------------------------------------------|
Db|----15---12--12--12---15--12--12--12---8--11---8--11---|
Ab|----13---10--10--10---13--10--10--10---8--11---8--11---|
Eb|----13---10--10--10---13--10--10--10---8--11---8--11---|
Ab|----13---10--10--10---13--10--10--10---8--11---8--11---|


Riff 5 (bridge)
eb|-----------------------------------|
Bb|-----------------------------------|
Gb|---10--10--10--10--10--10--10--10--|
Db|---x---x---x---x---x---x---x---x---|
Ab|---8---8---8---8---8---8---8---8---|
Eb|-----------------------------------|
Ab|-----------------------------------|


|-|------------------------------------|
|o|------------------------------------|
|-|--12--12--12--12--12--12--12--12----|
|-|--x---x---x---x---x---x---x---x-----|
|-|--10--10--10--10--10--10--10--10----|
|o|------------------------------------|
|-|------------------------------------|

This is two guitars right here each plays the part then returns to the repeat then 
again, listen to the song...

eb|------------------------------------------------------------------|
Bb|------------------------------------------------------------------|
Gb|--14--14--14--14--14--14--14--14--15--15--15--15--15--15--15--15--|
Db|--x---x---x---x---x---x---x---x---x---x---x---x---x---x---x---x---|
Ab|--12--12--12--12--12--12--12--12--13--13--13--13--13--13--13--13--|
Eb|------------------------------------------------------------------|
Ab|------------------------------------------------------------------|

eb|----------------------------------------------------------|-|
Bb|----------------------------------------------------------|o|
Gb|--10--10--10--10--10--10--10--10--8--8--8--8--8--8--8--8--|-|
Db|--x---x---x---x---x---x---x---x---x--x--x--x--x--x--x--x--|-|
Ab|--8---8---8---8---8---8---8---8---6--6--6--6--6--6--6--6--|-|
Eb|----------------------------------------------------------|o|
Ab|----------------------------------------------------------|-|


| /  slide up
| \  slide down
| h  hammer-on
| p  pull-off
| ~  vibrato
| +  harmonic
| x  Mute note


|-|
|o|
|-|
|-|   repeat sign
|-|
|o|
|-|
==============================================================================
Добавлено: 16.07.2012
Другие материалы по этой песне:

Страница создана 15.03.2012
http://primanota.ru/deftones/combat-chords.htm
Привет, Гость.
Предлагаем пройти революционный курс по гитаре.
Подарок от PrimaNota.Ru, забирай!