PrimaNota.ru - самый крупный в мире бесплатный архив песенных текстов, аккордов, табулатур и нот


Deftones - Christmas - текст песни, таба, видео

Регистрация Запомнить меня
Войти через:  Facebook Google Twitter Vk Yandex Mail.ru

Deftones - Christmas - текст песни, таба, видео

Печатать
Просмотров: 173
---------------------------------------------------------------------
                        CHRISTMAS - Deftones
---------------------------------------------------------------------
Tabbed by: lifer
Email: paranoid_toaster@hotmail.com

Tuning: Drop D

Main Riff
e|-------------------------------------------------------------------|
B|-------------------------------------------------------------------|
G|-------------------------------------------------------------------|
D|--7h8-8p0-8p0-8p7-3-2-x-x------------------------------------------|
A|--7h8-8p0-8p0-8p7-3-2-x-x------------------------------------------|
D|--7h8-8p0-8p0-8p7-3-2-x-x------------------------------------------|

Do the pull-offs very quickly, otherwise it wont sound right. 

Chorus
e|-------------------------------------------------------------------|
B|-------------------------------------------------------------------|
G|-------------------------------------------------------------------|
D|--2--7--8--5--4----------------------------------------------------|
A|--2--7--8--5--4----------------------------------------------------|
D|--2--7--8--5--4----------------------------------------------------|

Verse
e|--------------------------------------------------------------------|
B|--------------------------------------------------------------------|
G|-----------------------+5b------------------------------------------|
D|--------------------------------------------------------------------|
A|--2-x-x-x-x-2-x-x-x-x-------2-x-x-x-x-2-8/7-0-8/7-------------------|
D|--2-x-x-x-x-2-x-x-x-x-------2-x-x-x-x-2-8/7-0-8/7-------------------|
 PM -         -               -         - ---------

Pre-Chorus
e|--------------------------------|----------------------------------|
B|--------------------------------|----------------------------------|
G|--------------------------------|----4-4-4-4-4----4-4-4------------|
D|-0/2-2-2-2-2--0/2-2-2-8/7-0-8/7-|--0/2-2-2-2-2--0/2-2-2-8/7-0-8/7--|
A|-0/2-2-2-2-2--0/2-2-2-8/7-0-8/7-|--0/2-2-2-2-2--0/2-2-2-8/7-0-8/7--|
D|-0/2-2-2-2-2--0/2-2-2-8/7-0-8/7-|--0/2-2-2-2-2--0/2-2-2-8/7-0-8/7--|

Last Time
e|------------|
B|------------|
G|------------|
D|--8--7------|   
A|--8--7------|
D|--8--7------|

e|---------------------------|---------------------------------------|
B|---------------------------|---5--6--8--6--5--3--6--8--------------|
G|---------------------------|---4--5--7--5--4--2--5--7--------------|
D|---2--3--5--3--2--0--3--5--|---2--3--5--3--2--0--3--5--------------|
A|---------------------------|---2--3--5--3--2--0--3--5--------------|
D|---------------------------|---2--3--5--3--2--0--3--5--------------|


************************************

| /   slide up
| \   slide down
| h   hammer-on
| p   pull-off
| ~   vibrato
| +   harmonic
| x   Mute note
| b   Bend
| pb  Pre-bend
| br  Bend release
| pbr Pre-bend release
| brb Bend release bend

************************************
Добавлено: 20.04.2012
Другие материалы по этой песне:
  • Аккорды и текст

Страница создана 20.04.2012
http://primanota.ru/deftones/christmas-chords.htm
Привет, Гость.
Предлагаем пройти революционный курс по гитаре.
Подарок от PrimaNota.Ru, забирай!