PrimaNota.ru - самый крупный в мире бесплатный архив песенных текстов, аккордов, табулатур и нот


Deftones - Battle-Axe - аккорды и текст, бас-таба, видео

Регистрация Запомнить меня
Войти через:  Facebook Google Twitter Vk Yandex Mail.ru

Deftones - Battle-Axe - аккорды и текст, бас-таба, видео

Печатать
Просмотров: 204
Авторы: Deftones

Battle-Axe
Deftones
Hello , Ive seen this tab on here , and they are wrong.  Deftones songs are done with
a 7-string guitar, but the Deftones do use 6 string guitars in some of their songs,
especially this one,  this one is 100% correct, and I know it for a fact that it is,
but anyway, here ya go:
----------------------------------------------------------------------------
			Battle-Axe  by Deftones     
----------------------------------------------------------------------------
Tabbed by:Tyler Stieben(NightFire99)
Email:tyler__9@hotmail.com

Tuning: Drop D 

Intro
d|----------------------------0---------------------------------------------
B|--------------------3------------3----------------------------------------
G|------------0-------------------------0--------0------0------0------------
D|------4---------4-------4-------------------4------4------4-----4---------
A|----2---2-----------------------------------------------------------------
E|----------------------------------------------------------------------0--0
                                                                 


d|----------------------------0---------------------------------------------
B|--------------------3------------3--------------------------------3-3-3-3
G|------------0-------------------------0--------0------0------0----0-0-0-0
D|------4---------4-------4-------------------4------4------4-----4---------
A|----2---2-----------------------------------------------------------------
E|-------------------------------------------------------------------------
                                                            (Final Intro)
                                                             
Chorus 
d|--------------------------------------
B|---3-3-3-3-3-3-3-3-3-3-3-3-3-3-3-3----
G|---4-4-4-4-4-4-4-4-4-4-4-4-4-4-4-4----
D|---4-4-4-4-4-4-4-4-4-4-4-4-4-4-4-4----
A|---2-2-2-2-2-2-2-2-2-2-2-2-2-2-2-2----
E|--------------------------------------

d|--------------------------------------
B|--------------------------------------
G|--------------------------------------
D|---3-3-3-3-3-3-3-3-3-3-3-3-3-3-3-3----
A|---3-3-3-3-3-3-3-3-3-3-3-3-3-3-3-3----
E|---3-3-3-3-3-3-3-3-3-3-3-3-3-3-3-3----

d|---------------------------------------
B|---------------------------------------
G|---2-2-2-2-2-2-2-2-2-2-2-2-2-2-2-2-----
D|---0-0-0-0-0-0-0-0-0-0-0-0-0-0-0-0-----
A|---0-0-0-0-0-0-0-0-0-0-0-0-0-0-0-0-----
E|---0-0-0-0-0-0-0-0-0-0-0-0-0-0-0-0-----

d|---------------------------------------
B|---------------------------------------
G|---4-4-4-4-4-4-4-4-4-4-4-4-4-4-4-4-----
D|---2-2-2-2-2-2-2-2-2-2-2-2-2-2-2-2-----
A|---2-2-2-2-2-2-2-2-2-2-2-2-2-2-2-2-----
E|---2-2-2-2-2-2-2-2-2-2-2-2-2-2-2-2-----


Verse 1
d|-------------------------------------------------------
B|-------------------------------------------------------
G|---4--4--4--4-------4--4--4--4--4--4--4------4--4--4---
D|---4--4--4--4-------4--4--4--4--4--4--4------4--4--4---
A|---2--2--2--2-------2--2--2--2--2--2--2------2--2--2---
E|-------------------------------------------------------

d|-------------------------------------------------------
B|-------------------------------------------------------
G|--4--4--4--4-----4--4--4--4--4--4--4-------------------
D|--4--4--4--4-----4--4--4--4--4--4--4------0------------
A|--2--2--2--2-----2--2--2--2--2--2--2------0------------
E|------------------------------------------0------------

Verse 2
d|-------------------------------------------------------
B|-------------------------------------------------------
G|---4--4--4--4-------4--4--4--4--4--4--4------4--4--4---
D|---4--4--4--4-------4--4--4--4--4--4--4------4--4--4---
A|---2--2--2--2-------2--2--2--2--2--2--2------2--2--2---
E|-------------------------------------------------------

d|-------------------------------------------------------
B|-------------------------------------------------------
G|--4--4--4--4----4-4----4--4--4--4--4--4--4-------------------
D|--4--4--4--4----4-4----4--4--4--4--4--4--4---0--0--0--------
A|--2--2--2--2----2-2----2--2--2--2--2--2--2---0--0--0--------
E|---------------------------------------------0--0--0--------

d|-------------------------------------------------------
B|-------------------------------------------------------
G|---4--4--4--4-----4-4-----4--4--4--4--4--4--4------4--4--4---
D|---4--4--4--4-----4-4-----4--4--4--4--4--4--4------4--4--4---
A|---2--2--2--2-----2-2-----2--2--2--2--2--2--2------2--2--2---
E|-------------------------------------------------------

d|-------------------------------------------------------
B|-------------------------------------------------------
G|--4--4--4--4-----4--4--4--4--4--4--4----4---------------
D|--4--4--4--4-----4--4--4--4--4--4--4----4---0------------
A|--2--2--2--2-----2--2--2--2--2--2--2----2---0------------
E|--------------------------------------------0------------


Bridge
d|----------------------------------------------------------------
B|----------------------------------------------------------------
G|--14----14----14----14----14-14---14-----14-14-14-14-14-14-14---
D|----------------------------------------------------------------
A|--12----12----12----12----12-12---12-----12-12-12-12-12-12-12---
E|----------------------------------------------------------------

d|---------------------------------------------------
B|---------------------------------------------------
G|---14-14-14-14-14-14-14-14-----14--14--14--14------
D|---------------------------------------------------
A|---12-12-12-12-12-12-12-12-----12--12--12--12------
E|---------------------------------------------------

d|------------------------------------------------------
B|------------------------------------------------------
G|---14-14-14-14-14-14-14-14-14-14-----14-14-14-14------
D|------------------------------------------------------
A|---12-12-12-12-12-12-12-12-12-12-----12-12-12-12------
E|------------------------------------------------------

d|------------------------------------------------------
B|------------------------------------------------------
G|---14-14-14-14-14-14-14-14-14-14-14-------------------
D|------------------------------------------------------
A|---12-12-12-12-12-12-12-12-12-12-12-------------------
E|------------------------------------------------------


d|------------------------------------------------------
B|------------------------------------------------------
G|---14-14-14-14-14------14-14-14-14-14-14-14-------14-14
D|-------------------------------------------------------
A|---12-12-12-12-12------12-12-12-12-12-12-12-------12-12
E|------------------------------------------------------

d|------------------------------------------------------
B|------------------------------------------------------
G|---14-14-14-14-14-14-14-14-14-14-14-----14--------------
D|------------------------------------------------------
A|---12-12-12-12-12-12-12-12-12-12-12-----12--------------
E|------------------------------------------------------


Outro
d|-------------------------------------------------------
B|-------------------------------------------------------
G|---4--4--4--4-------4--4--4--4--4--4--4------4--4--4---
D|---4--4--4--4-------4--4--4--4--4--4--4------4--4--4---
A|---2--2--2--2-------2--2--2--2--2--2--2------2--2--2---
E|-------------------------------------------------------

d|-------------------------------------------------------
B|---------------------------------------------3---------
G|---4--4--4--4-------4--4--4--4--4--4--4------2---------
D|---4--4--4--4-------4--4--4--4--4--4--4------3---------
A|---2--2--2--2-------2--2--2--2--2--2--2------0---------
E|---------------------------------------------0---------


Song Order : 
Intro - 3x 
Final Intro 
Chorus - 2x
Verse1 
Verse2 - 2x 
Chorus - 2x 
Verse1 
Verse2 - 2x
Chorus - 3x
Bridge - 2x
Verse1 - 3x
Outro
Добавлено: 09.07.2012
Другие материалы по этой песне:

Страница создана 01.03.2012
http://primanota.ru/deftones/battle-axe-chords.htm
Привет, Гость.
Предлагаем пройти революционный курс по гитаре.
Подарок от PrimaNota.Ru, забирай!