PrimaNota.ru - самый крупный в мире бесплатный архив песенных текстов, аккордов, табулатур и нот


Defeater - Dear Father - таба, видео

Регистрация Запомнить меня
Войти через:  Facebook Google Twitter Vk Yandex Mail.ru

Defeater - Dear Father - таба, видео

Печатать
Просмотров: 327
Dear Father by Defeater
Tuning: D Standard
D-G-C-F-A-d


d---------------------------------------------------|
A---------------------------------------------------|
F---------------------------------------------------|
C---5---5---5---5----10-----10-----9-----9----------|
G--7-7-7-7-7-7-7-7-12--12-12--12-10-10-10-10--------|
D-0---0---0---0---0------0------0-----0-------------|

d---3---3---3---3----8-----8----7---7---------|
A--5-5-5-5-5-5-5-5-10-10-10-10-8-8-8-8--------|
F-0---0---0---0---0-----0-----0---0-----------|
C---------------------------------------------|
G---------------------------------------------|
D---------------------------------------------|

d---------------------------------|
A---------------------------------|
F-----------------9---------------|
C-10--9--10--12-----9-------------|
G-9--10--12--14-------10----------|
D------------------------12-------|

d---------------------------------|
A---------------------------------|
F--16---19------------------------|
C---------------------------------|
G--14---17------------------------|
D---------------------------------|

d--------------------------------------------|
A--------------------------------------------|
F-9---------0-9---0---0----------9-----------|
C--9---------------9---7--x2-7----9----------|
G---10----10----10---9--9----9-----10--------|
D-----12-0-----0----0----------------12------|

d---------------------------------|
A--------------------17-19-20-----|
F--12-11-14-16-17-19--------------|
C--------------------14-16-17-----|
G--10-9--12-14-15-17--------------|
D---------------------------------|

Should give you a base to figure out the song
Добавлено: 10.05.2012
Другие материалы по этой песне:

Страница создана 10.05.2012
http://primanota.ru/defeater/dear-father-chords.htm
Привет, Гость.
Предлагаем пройти революционный курс по гитаре.
Подарок от PrimaNota.Ru, забирай!