PrimaNota.ru - самый крупный в мире бесплатный архив песенных текстов, аккордов, табулатур и нот


Defeater - The Red White And Blues - таба, видео

Регистрация Запомнить меня
Войти через:  Facebook Google Twitter Vk Yandex Mail.ru

Defeater - The Red White And Blues - таба, видео

Печатать
Просмотров: 314
The Red, White and Blues
Defeater
Lost Ground

DROP D TUNING

USE YOUR BRAIN FOR THE STRUMMING!!!

Intro:

-----1------1----1-----1---------------------|
-----1------1------1---1----1----1------1----|
---------------------2------3----3--------3--|
--0------0----------------------------0------|
--------------------------1----1----1--------|
---------------------------------------------|

-----1------1----1-----1-----|
-----1------1------1---1--1--|
---------------------2----3--|
--0------0-------------------|
-----------------------------|
-----------------------------|

--------------------------------------|
--6-------------------------65656565--|
--7---(play alotta times)---77777777--|
--7-------------------------77777777--|
--5-------------------------55555555--|
--------------------------------------|

------------|
------------|
--3-33-3-3--|
--3-33-3-3--| x2
--1-11-1-0--|
------------|

------|
--11--|
------| xlots
--8---|
------|
------|

---------|
-----55--|
-----77--|
-----77--| x4
-----55--|
--00-----|
  ..

--------------------------------------|
--6-------------------------65656565--|
--7---(play alotta times)---77777777--|
--7-------------------------77777777--|
--5-------------------------55555555--|
--------------------------------------|

------------|
------------|
--3-33-3-3--|
--3-33-3-3--| x2
--1-11-1-0--|
------------|

-----------------|
--11-10-6-10-11--|
-----------------|
--8--7--3-7--8---|
-----------------|
-----------------|

---------5---------------------------|
--3-3-23--------------------8-11-10--|
--2-2-23-2---------------------------|
--0-0-00-------------3-3-33-5-8--7---|
--0-0-00-------------3-3-33----------|
--0-0-00-------------3-3-33----------|

---------5---------------------------|
--3-3-23--------------------8-11-----|
--2-2-23-2---------------------------|
--0-0-00-------------3-3-33-5-8------|
--0-0-00-------------3-3-33----------|
--0-0-00-------------3-3-33----------|

------------------------------------|
--3333333333333333333333333333-333--|
--2220002220002220222000222000-222--|
--0000000000000000xxxxxxxxxxxx-xxx--|
------------------111111111111-111--|
------------------------------------|

Can pretty much figure the rest out from that...
Enjoy fools.
Добавлено: 06.04.2012
Другие материалы по этой песне:
  • Аккорды и текст

Страница создана 06.04.2012
http://primanota.ru/defeater/the-red-white-and-blues-chords.htm
Привет, Гость.
Предлагаем пройти революционный курс по гитаре.
Подарок от PrimaNota.Ru, забирай!