PrimaNota.ru - самый крупный в мире бесплатный архив песенных текстов, аккордов, табулатур и нот


Defeater - Cowardice - таба, видео

Регистрация Запомнить меня
Войти через:  Facebook Google Twitter Vk Yandex Mail.ru

Defeater - Cowardice - таба, видео

Печатать
Просмотров: 305
-------------------------------------------------------------------------------
                             COWARDICE - Defeater
-------------------------------------------------------------------------------

Bridge 9 Records artist page - http://www.bridge9.com/defeater
Myspace - http://www.myspace.com/defeater



Tuning: D Standard (1 step down)

This is just the intro, the rest of the tab is coming soon.


     Q    E  Q    E  Q       H.           E  E   
D||-----------------------|---------------------|
A||-----------------------|---------------------|
F||----------5-------4----|--L------------------|
C||----------2-------2----|--L------------------|
G||--2--------------------|---------------------|
D||--0----0-------0-------|---------------0--2--|

                            L = tie note. Let it ring.


  Q    E  Q    E  Q       H.           Q       Q    E  Q    E  Q     
-----------------------|--------------------|-----------------------|
-----------------------|--------------------|-----------------------|
----------5-------4----|--L-----------------|----------4-------5----|
----------5-------5----|--L-----------------|--2----2--2----2--2----|
--5----5-------5-------|---------------5----|--0----0-------0-------|
--3----3-------3-------|---------------3----|-----------------------|

*it's easier to barr the
fifth fret across the
three strings with your
pinky than anything else

  H.           Q         Q     E   E   Q     Q     
---------------------|--------12------------------|
---------------------|------------12--------------|
--L------------2s----|--12------------12----12----|
--L------------------|----------------------------|
---------------------|----------------------------|
---------------------|----------------------------|

               slide up to 12

   E   E   E   E   E   E   E   E     Q    E  Q    E  Q     
------------------12--------------|-----------------------|
--------------12------12----------|-----------------------|
----------12--------------12------|----------5-------4----|
------13----------------------13--|----------2-------2----|
--14------------------------------|--2--------------------|
----------------------------------|--0----0-------0-------|


  H.           E  E     Q    E  Q    E  Q       H.           Q     
---------------------|-----------------------|--------------------|
---------------------|-----------------------|--------------------|
--L------------------|----------5-------4----|--L-----------------|
--L------------------|----------5-------5----|--L-----------------|
---------------------|--5----5-------5-------|---------------5----|
---------------0--2--|--3----3-------3-------|---------------3----|


  Q    E  Q    E  Q       H.           Q      
-----------------------|---------------------|
-----------------------|---------------------|
----------4-------5----|--L------------2s----|
--2----2--2----2--2----|--L------------------|
--0----0-------0-------|---------------------|
-----------------------|---------------------|


   Q     E   E   Q     Q        E   E   E   E   E   E   E   E         
--------12------------------|------------------12--------------|-----|
------------12--------------|--------------12------12----------|-----|
--12------------12----12----|----------12--------------12------|-----|
----------------------------|------13----------------------13--|-----|
----------------------------|--14------------------------------|-----|
----------------------------|----------------------------------|-----|

The rest will be up soon!
Добавлено: 20.05.2012
Другие материалы по этой песне:

Страница создана 20.05.2012
http://primanota.ru/defeater/cowardice-chords.htm
Привет, Гость.
Предлагаем пройти революционный курс по гитаре.
Подарок от PrimaNota.Ru, забирай!