PrimaNota.ru - самый крупный в мире бесплатный архив песенных текстов, аккордов, табулатур и нот


Deep Purple - Temple Of The King - аккорды и текст, видео

Регистрация Запомнить меня
Войти через:  Facebook Google Twitter Vk Yandex Mail.ru

Deep Purple - Temple Of The King - аккорды и текст, видео

Печатать
Просмотров: 93
Temple Of The King
Deep Purple
INTRO:
e------0-0-------------------------------------------------------
B-----5-5---3-5-3-----1-3-1--------3-3---3p5r3---1-3-1-----------
G--------------------------------2-----------------------------2-
D----------------------------------------------------------------
A----------------------------------------------------------------
E----------------------------------------------------------------
 
e-----0-0---------------------------------------------------------
B----5-5---3-5-3--------1-3-1------3-3---3p5r3---1-3-1------------
G----------------------------------2----------------------------2-
D-----------------------------------------------------------------
A-----------------------------------------------------------------
E-----------------------------------------------------------------

The INTRO chords: Am  F  G  Am  Am  G  Dm - F  Am
 
FILL 
e----------------------- 
B----------------------- 
G----------------------- 
D---------------2-0-----  
A-----0---2-3-------2-3- 
E----------------------- 
 
C		 G   
One day in the year of the fox 
	Dm		Am 
Came a time remembered well 
	 F 
When the strong young man 
	G 
Of the rising sun heard the 
Am 
Tolling of the great black bell 
 
(FILL) 

C		 G 
One day in the year of the fox when the 
E	      Am	 
Bell began to ring, it meant the 
F		      G	 
Time had come for the one to go to the 
Am 
Temple of the King 
 
Dm 
There in the middle of the circle, he stands 
Am 
Searching, Seeking, 
      G		 
With just one touch of his trembling hand 
     Am	 
The answer will be found 
 
Dm 
Daylight waits for the oldman's scream 
Am	 
Heaven, help me, 
G	 Dm 
Just like a rush of thousand wings  
    E 
It shines upon the world 
	F	G 	Am      
And the day has just begun 
 
Repeat INTRO 
(FILL) 

C		 G 
One day in the year of the fox 
	Dm		Am 
Came a time remembered well 
	  F	 
When the strong young man 
	G 
Of the rising sun heard the 
Am 
Tolling of the great black bell 
 
(FILL) 

C		 G 
One day in the year of the fox when the 
E	      Am	 
Bell began to ring, it meant the 
F		      G	 
Time had come for the one to go to the 
Am 
Temple of the King 
 
Dm 
There in the middle of people he stands 
Am 
Seeking, feeling 
	  G 
Just one touch of the strong right hand 
      E 
He's gone, to the  
F      G      Am 
Temple of the King 

Intro
 
SOLO:
e----3-----1----3---5------8^-----------5---3--5---8---10---12^-
B-----------------------------------5---------------------------
 
e----12^--8-10^------8-10-10---------12b-7----7-8----7-8------
B-----------------------------------------------------------6-
 
e----------------------8----10/12---------12b---7---------------
B---6---8----10----------------------------------------6-8----5-
 
e----------5----7--8------10^-------7--8---10----12^--------13^-
B----5----------------------------------------------------------
 
Solo chords: Am  F  Am  F  Am 
             G  Dm  E  Am  F  Am  F 
             Am  G  Dm  E
Dm	 
Far from the circle of the edge of the world 
      Am	 
He's smoking, wandering 
G			 
Thinking back of the stories he's told 
       Am 
Before he's gonna see 
Dm 
There in the middle of the circle he lies 
Am 
Heaven, help me 
G		 Dm 
All could see by the shine in his eyes 
     E	 
The answer has been found 
 
Dm 
Back with the people in the circle he stands 
Am 
Seeing, feeling 
     G			 Dm			   E	 
With just one touch of the strong right hand they know 
	F      G      Am			 
Of the Temple and the King  
 
Intro
Добавлено: 07.04.2016
Другие материалы по этой песне:
  • Аккорды и текст

Страница создана 07.04.2016
http://primanota.ru/deep-purple/temple-of-king-chords.htm
Привет, Гость.
Предлагаем пройти революционный курс по гитаре.
Подарок от PrimaNota.Ru, забирай!