PrimaNota.ru - самый крупный в мире бесплатный архив песенных текстов, аккордов, табулатур и нот


Deep Purple - Money Talks - таба, видео

Регистрация Запомнить меня
Войти через:  Facebook Google Twitter Vk Yandex Mail.ru

Deep Purple - Money Talks - таба, видео

Печатать
Просмотров: 190
Авторы музыки: Ian Paice, Roger Glover, Steve Morse, Don Airey, Ian Gillan

I saw that there were no tabs of this song in the requested tab part of Ultimate-Guitar...
 Never heard the song
before but I love Deep Purple so I gave it atleast a try!
The tuning is not actually standard it's halv a step down..
But here it goes... better than nothing ;)

E flat (D#)
A flat (G#)
D flat (C#)
G flat (F#)
B flat (A#)
E flat (D#)

The whole verse part goes like this
----------------------------------------------------------------------------|
----------------------------------------------------------------------------|
----------------------------------------------------------------------------|
----------------------------------1---------------------------------1-3-----|
------------1-3--1-3-1----------3----4-3------------3-1---3---4---4---------|
-4-1----1-4------------4-1----4----------4-1----1-4-----1---1---1-------4-1-|

Not so sure about the chorus part but again...better than nothing!

Chorus
-----------------------------------------------------------|
-----------------------------------------------------------|
-----------------------------------------------------------|
---------------------------1-----------------------------1-|
-1---4-3-4-------1---4-3-4------1---4-3-4------1---4-3-4---|
-----------2--4---------------------------2-4--------------|

And then the verse part starts again..
Sorry for not tabbing the whole song but the solo parts got me, but here's at least
something for you to play :)
Добавлено: 09.11.2015
Вам также может быть интересно:
Другие материалы по этой песне:
  • Аккорды и текст

Страница создана 09.11.2015
http://primanota.ru/deep-purple/money-talks-chords.htm
Привет, Гость.
Предлагаем пройти революционный курс по гитаре.
Подарок от PrimaNota.Ru, забирай!