PrimaNota.ru - самый крупный в мире бесплатный архив песенных текстов, аккордов, табулатур и нот


Deep Purple - Ive Got Your Number - таба, видео

Регистрация Запомнить меня
Войти через:  Facebook Google Twitter Vk Yandex Mail.ru

Deep Purple - Ive Got Your Number - таба, видео

Печатать
Просмотров: 331
Hi .
This is my first tab for the song by Deep Purple:
I've Got Your Number.
Album: Bananas
Noticed that there aren't any tabs in the internet (yet!) for this really cool
song . so here we go!
Scale: Bm natural (most of the song. in a solo part it goes to Am)



                  now the same one octave up
e-------------------|------------------------|-------------14----------(17)|
B-------------------|------------10-^(12)-12-|-15----17----------17^(19)---|
G-------------------|-7---9-7-11-------------|----16----16-----------------|
D-------------7^(9)9|---9--------------------|-----------------------------|
A---5---7-5-9-------|------------------------|-----------------------------|
E-7---7-------------|------------------------|-----------------------------|


then comes some power chords

D5|E5|A5|D5|A5|B5| .. then again the tabs above.(notice the cyncope)

D5|E5|A5|D5|F#|

Guitar riff..
e----------------------------------------------------------|
B----------------------------------------------------------|
G----------------------------------------------------------|
D----------------------------------------------------------|
A-------5H7-------------------5H7--------------------------|
E-0-5-7-----0--0-3-5-7---0-5-7----0---0-3-2-0--------------|

chorous:

|B5|G5|E5|D5 E5 A5 D5 F#5 A5|

after couple make a syncope ..|D5 E5 A5 D5 A5 B5|

Modulation part: played the same intro solo but in 12 fret (Em)

e-----------------------------------------------------|
B-----------------------------------------------------|
G-----------------------------------------------------|
D-------------------12^(14)-14------etc..-------------|
A----10----12-10-14-----------------------------------|
E-12----12--------------------------------------------|

modulation chords:
E5|C5|A5|G5 A5 D5 A5| then a connection notes to G5 (= E-F#-G5)

"it the same old.."

G5| D5 A5|
G5| A5 D5|
G5| D5 A5|
G5| A5 B5|
twice. (notice cycope, It's different in every part).


hear the song to make the right connections.
this song is however for advanced guitar players.

Silent solo part

---------------------------------------------------------------------|
---7-----------------------------------------------------------------|
-----9-7-6---6-7-9-7p6-----------------------------------------------|
-9---------9-----------9p7-7p5-4-------------------------------------|
---------------------------------------------------------------------|
---------------------------------------------------------------------|


then...

-----------------------------------------|
---11--12---9----------------------------|
---11--12---9----------------------------|
---11--12---9----------------------------|
-----------------------------------------|
-----------------------------------------|

solo part... yes..yes.. goes and goes..


I'll post the solo and the riff soon..
Have fun!
Deep Purple rocks also with Steve Morse!

Enjoy and feel free to post some comments .


Tabs by : Shaq.
Добавлено: 02.11.2013
Другие материалы по этой песне:
  • Аккорды и текст

Страница создана 02.11.2013
http://primanota.ru/deep-purple/ive-got-your-number-chords.htm
Привет, Гость.
Предлагаем пройти революционный курс по гитаре.
Подарок от PrimaNota.Ru, забирай!