PrimaNota.ru - самый крупный в мире бесплатный архив песенных текстов, аккордов, табулатур и нот


Deep Purple - Hush Live - таба, бас-таба, видео

Регистрация Запомнить меня
Войти через:  Facebook Google Twitter Vk Yandex Mail.ru

Deep Purple - Hush Live - таба, бас-таба, видео

Печатать
Просмотров: 242
Уроки эстрадного вокала в Санкт-Петербурге
HUSH (Live)

As recorded by Deep Purple
(From the 1969 Album CONCERTO FOR GROUP AND ORCHESTRA)


Words and Music by Joe South
Arranged by Deep Purple
Transcribed by Slowhand


Gtr I (E A D G B E) - 'Ritchie Blackmore - Electric Guitar'


 Intro
  Q=118
  N.C.
 4/4
  Gtr I
  H    Q  S S S S   W          W          a     +E  +S  S S E. +Q.   E
|-----------------|----------|----------|--------------------------------|
|-----------------|----------|----------|-8b10==(8)r(8)p6---6--(6)-------|
|-----------------|----------|----------|-----------------7--------------|
|-----------------|----------|----------|----------------------------5b7-|
|-----------------|----------|----------|--------------------------------|
|---------x-x-x-x-|-6--------|-4--------|--------------------------------|


      ~~~~~~~~~~~
  S S Q.     +E  E  E E   E E Q  H
|---3-------------------|-------------|
|-3---6b8====(6)-xr---x-|-------------|
|-----------------------|-------------|
|-------------------x---|-------------|
|-----------------------|-x-----------|
|-----------------------|-------------|


                         PM----------------|
  H    E E E E   E E a E S S S S S S S S S S
|--------------|------------------------------|
|--------------|------------------------------|
|--------------|------------------------------|
|--------------|---4-4s5-x-x-x-x-x-x-x-x-x-x--|
|----------1-2-|-3----------------------------|
|--------3-----|------------------------------|


  PM-----------------------------------------------------------------
  S S S S S S S S S S S S S S S S   S S S S S S S S S S S S S S S S
|---------------------------------|---------------------------------|
|---------------------------------|---------------------------------|
|---------------------------------|---------------------------------|
|-x-x-x-x-x-x-x-x-x-x-x-x-x-x-x-x-|-x-x-x-x-x-x-x-x-x-x-x-x-x-x-x-x-|
|---------------------------------|---------------------------------|
|---------------------------------|---------------------------------|


 -------------------------------|
  S S S S S S S S S S S S S S S S
|------------------------------------|
|------------------------------------|
|------------------------------------|
|-x-x-x-x-x-x-x-x-x-x-x-x-x-x-x-x----|
|------------------------------------|
|------------------------------------|


  PM-------------------------------
  S S S S S S S S S S S S S S S S
|---------------------------------|
|---------------------------------|
|---------------------------------|
|-x-x-x-x-x-x-x-x-x-x-x-x-x-x-x-x-|
|---------------------------------|
|---------------------------------|


                                    Interlude
                                  $
                                     Ab      Eb
 -------------------------------|
  S S S S S S S S S S S S S S S S    E E E E E E E E
|---------------------------------||------------------|
|---------------------------------||-------------8----|
|---------------------------------||-----------8------|
|-x-x-x-x-x-x-x-x-x-x-x-x-x-x-x-x-||-----6------------|
|---------------------------------||---6---6-6--------|
|---------------------------------||-4-------------4--|


  Bb       F            C7
  E E E E  E E E E      E Q.     E Q.
|---------------------|-------------------|
|---------------------|-------------------|
|----------------3tr5-|---3tr5-----3tr5---|
|-----8--------3------|-------------------|
|---8---8\---3--------|-3--------3--------|
|-6--------1----------|-------------------|


                      Ab      Eb
  E Q.     E Q.       E E E E E E E E
|-------------------|------------------|
|-------------------|-------------8----|
|---3tr5-----3tr5---|-----------8------|
|-------------------|-----6------------|
|-3--------3--------|---6---6-6--------|
|-------------------|-4-------------4--|


                                                                 1st Verse
               To Coda
  Bb       F             C7
  E E E E  E E E E       E Q.     E Q.       E Q.     Q.     E    H    Q  E E
|----------------------|-------------------|---------------/15-||-------------|
|----------------------|-------------------|-------------------||-------------|
|----------------3tr5--|---3tr5-----3tr5---|---3tr5------------||-----------3-|
|-----8--------3-------|-5--------5--------|-5-----------------||-----------2-|
|---8---8\---3---------|-3--------3--------|-3--------3--------||-----------3-|
|-6--------1-----------|-------------------|-------------------||-------------|


  e e S S S S S S S S E E   E E S S S S S S S S S S E
|-------------------------|---------------------------|
|-------------------------|-----0h1-1p0---------------|
|-3-3-x-x-x-x-x-x-x-x-3-3-|-0-x---------x-x-x-x-----3-|
|-2-2-x-x-x-x-x-x-x-x-2-2-|-2-x-----------------3-5-3-|
|-3-3-x-x-x-x-x-x-x-x-3-3-|---------------------3-5---|
|-------------------------|-3-x-----------------------|


  C5
  E E E S S S S S S S S E
|--------------------------||
|--------------------------||
|-5---------------------3--||
|-5-----------------3-5-3--||
|-3-3-3-3-3-3-3-3-3-3-5----||
|--------------------------||


 Interlude
  Ab      Eb        Bb       F
  E E E E E E E E   E E E E  E E E E
|-----------------|---------------------|
|-------------8---|---------------------|
|-----------8-----|----------------3tr5-|
|-----6-----------|-----8--------3------|
|---6---6-6-------|---8---8\---3--------|
|-4-------------4-|-6--------1----------|


  C7
  E Q.     E Q.       E Q.     E Q.
|-------------------|--------------------|
|-------------------|--------------------|
|---3tr5-----3tr5---|---3tr5-----3tr5----|
|-5--------5--------|-5--------5---------|
|-3--------3--------|-3--------3---------|
|-------------------|--------------------|


  Ab      Eb        Bb       F            C7
  E E E E E E E E   E E E E  E E E E      S S S S Q  +E  a E S S S S
|-----------------|---------------------|----------------------------|
|-------------8---|---------------------|----------------------------|
|-----------8-----|----------------3tr5-|-3-5-5-5-5--(5)-3h5-5-3-----|
|-----6-----------|-----8--------3------|------------------------5-3-|
|---6---6-6-------|---8---8\---3--------|----------------------------|
|-4-------------4-|-6--------1----------|----------------------------|


                                         Chorus
                                          N.C.
  |-3-|
  S S S S S S S S T T S S S S S S a E     E E Q  H      W
|-------------------------------------||--------------|------|
|-------------------------------------||o-------------|------|
|-------------5-3-2p0-----5-3-0h2-5s7-||--5-----------|------|
|-5h6p5-4---5---------4-6-------------||--------------|------|
|---------6---------------------------||o-------------|------|
|-------------------------------------||--------------|------|


  S S +E  Q  H      E E S S S S +S  S S S S S S S   S S +E  Q  S S S S S S S S
|-----------------|-------------------------------|----------------------------|
|-----------------|-------------------------------|------------x-x-x-x-x-x-x-x-|
|-----------------|-------------------------------|----------------------------|
|-----------------|-x-x-x-x-x-x-(x)-x-x-x-x-x-x-x-|----------------------------|
|-1h3-(3)---------|-------------------------------|-1h3-(3)--------------------|
|-----------------|-------------------------------|----------------------------|


  E E S S S S +S  S S S S S S S   S S +E  Q  S S S S S S S S
|-5---5-3-----------------------|----------------------------|
|---x-----6---------------------|----------------------------|
|-----------3-(3)-x-x-x-x-x-x-x-|----------------------------|
|-------------------------------|------------x-x-x-x-x-x-x-x-|
|-------------------------------|-1h3-(3)--------------------|
|-------------------------------|----------------------------|


  S S S S S S S S +S  S S S S S S S
|------------------------------------|
|-x-x-x-x-x-x-x-x-(x)-x-x-x-x-x-x-x--|
|------------------------------------|
|------------------------------------|
|------------------------------------|
|------------------------------------|


                                 1.
  C7sus4
  E. S +H.        E. S +H.        E. S +H.        E. S +H.
|---------------|---------------|---------------|-------------|
|-1--1-(1)------|-1--1-(1)------|-1--1-(1)------|-1--1-(1)----|
|-3--3-(3)------|-3--3-(3)------|-3--3-(3)------|-3--3-(3)----|
|-3--3-(3)------|-3--3-(3)------|-3--3-(3)------|-3--3-(3)----|
|-3--3-(3)------|-3--3-(3)------|-3--3-(3)------|-3--3-(3)----|
|---------------|---------------|---------------|-------------|


  S S S S S S S S S S S S S S S S   S S S S S S S S S S S S S S S S
|---------------------------------|----------------------------------||
|-x-x-x-x-x-x-x-x-x-x-x-x-x-x-x-x-|-x-x-x-x-x-x-x-x-x-x-x-x-x-x-x-x--||
|---------------------------------|----------------------------------||
|---------------------------------|----------------------------------||
|---------------------------------|----------------------------------||
|---------------------------------|----------------------------------||


 2nd Verse
  N.C.
  S S S S S S S S S S S S S S S S   S S S S S S S S S S S S S S S S
|---------------------------------|----------------------------------|
|-x-x-x-x-x-x-x-x-x-x-x-x-x-x-x-x-|-x-x-x-x-x-x-x-x-x-x-x-x-x-x-x-x--|
|---------------------------------|----------------------------------|
|---------------------------------|----------------------------------|
|---------------------------------|----------------------------------|
|---------------------------------|----------------------------------|


  S S S S S S S S S S S S S S S S   S S S S S S S S S S S S S S S S
|---------------------------------|----------------------------------||
|-x-x-x-x-x-x-x-x-x-x-x-x-x-x-x-x-|-x-x-x-x-x-x-x-x-x-x-x-x-x-x-x-x--||
|---------------------------------|----------------------------------||
|---------------------------------|----------------------------------||
|---------------------------------|----------------------------------||
|---------------------------------|----------------------------------||


 Interlude
  Ab      Eb        Bb       F
  E E E E E E E E   E E E E  E E E E
|-----------------|---------------------|
|-------------8---|---------------------|
|-----------8-----|----------------3tr5-|
|-----6-----------|-----8--------3------|
|---6---6-6-------|---8---8\---3--------|
|-4-------------4-|-6--------1----------|


  E Q.     E Q.       E Q.     E Q.
|-------------------|--------------------|
|-------------------|--------------------|
|---3tr5-----3tr5---|---3tr5-----3tr5----|
|-------------------|--------------------|
|-3--------3--------|-3--------3---------|
|-------------------|--------------------|


  Ab      Eb        Bb      F    N.C.
  E E E E E E E E   E E E E Q.   S S   E S S E S S S T T S S Q
|-----------------|--------------8-7-|-8-----------------8-x-8--|
|-------------8---|------------------|---------8-6-5-x-8--------|
|-----------8-----|-----3---2--------|---5-x-5------------------|
|-----6-----------|---3---1-3--------|--------------------------|
|---6---6-6-------|-1----------------|--------------------------|
|-4-------------4-|---------1--------|--------------------------|


                       2.
                        C7sus4
  S E S E E Q   Q       E. S +H.        E. S +H.
|-------5-7-8--15\---||---------------|---------------|
|-8-8-8--------15\--o||-1--1-(1)------|-1--1-(1)------|
|--------------------||-3--3-(3)------|-3--3-(3)------|
|--------------------||-3--3-(3)------|-3--3-(3)------|
|-------------------o||-3--3-(3)------|-3--3-(3)------|
|--------------------||---------------|---------------|


   Organ Solo
    N.C.
    S S S S S S S S S S S S S S S S    8x
||-------------------------------------||
||o-----------------------------------o||
||-------------------------------------||
||-------------------------------------||
||o-x-x-x-x-x-x-x-x-x-x-x-x-x-x-x-x---o||
||-------------------------------------||


  S S S S S S S S S S S S S  S E
|--------------------------------|
|--------------------------------|
|--------------------------------|
|------------------------------8-|
|-x-x-x-x-x-x-x-x-x-x-x-x-8h10---|
|--------------------------------|


  E E E S S  E E E E   S S S S S S S S S E S +E  E
|--------------------|------------------------------|
|--------------------|------------------------------|
|----------------8---|---------------------------8--|
|---------8----8-----|------------------------------|
|-x-x-------10-6-----|-x-x-x-x-x-x-x-x--------------|
|--------------------|-----------------8-8-8-(8)----|


  E E S S S S S S S S S  S E   S S S S S S E H      W          W
|----------------------------|--------------------|----------|------|
|----------------------------|--------------------|----------|------|
|----------------------------|--------------------|----------|------|
|--------------------------8-|--------------------|----------|------|
|-----x-x-x-x-x-x-x-x-8h10---|-x-x-x-x------------|----------|------|
|-8-8------------------------|---------8-6--------|----------|------|


  W          E S S S S S S S S S S E E   +E  E E E S S S S S S E
|----------|---------------------------|-------------------------|
|----------|-------------------------8-|-(8)---8---------------8-|
|----------|---------------------------|-----------------------8-|
|----------|---------------------------|-------------------6-8---|
|----------|---x-x-x-x-x-x-x-x-x-x-x---|-----------x-x-x-x-------|
|----------|-8-------------------------|-----8-------------------|


  S S S S S S S S S S S S S S S S   S S S S S  S S S S S S S S S S S
|---------------------------------|-----------------------------------|
|---------------------------------|-----------------------------------|
|---------------------------------|-----------------------------------|
|---------------------------------|-8---9-----10----------------------|
|-x-x-x-x-x-x-x-x-x-x-x-x-x-x-x-x-|-x-x-x-x-x--x-x-x-x-x-x-x-x-x-x-x--|
|---------------------------------|-----------------------------------|


                                                            D.S. al Coda
    S S S S S S S S S S S S S S S S 12x S S S S S S S S S S S S S S S S
||-----------------------------------||-----------------------------------||
||o---------------------------------o||-----------------------------------||
||-----------------------------------||-----------------------------------||
||-----------------------------------||-----------------------------------||
||o-x-x-x-x-x-x-x-x-x-x-x-x-x-x-x-x-o||-x-x-x-x-x-x-x-x-x-x-x-x-x-x-x-x---||
||-----------------------------------||-----------------------------------||


 Outro
                                                                accelerando Q=112
  &
  N.C.
                               |-3-|
  S S S S a Q  +E  E   E S S   S S S E S    +S  S S S S Q.      Q  Q  H
|----------------------------|--------------------------------|------------|
|----------------------------|--------------------------------|------------|
|-3h5-5-5-3h5--(5)-5b7-5-5-3-|---3-----3pb5r(3)---5-3-5-5b7---|------------|
|----------------------------|-5---5-5----------5-------------|-------6----|
|----------------------------|--------------------------------|----6-------|
|----------------------------|--------------------------------|-6----------|


  Q  Q  Q  Q     Q  E E Q  Q     H    H      E E Q  H
|--------------|---------------|-----------|-------------*|
|--------------|---------------|------1----|-5-----------*|
|-------8------|--------7------|------2----|-------------*|
|----8-----8\--|------8----8\--|-----------|-------------*|
|-6------------|----8----------|-----------|-------------*|
|--------------|-6-------------|-1---------|-------------*|


Duration Legend
---------------
W - whole; H - half; Q - quarter; E - 8th; S - 16th; T - 32nd; X - 64th; a - acciaccatura
+ - note tied to previous; . - note dotted; .. - note double dotted
Uncapitalized letters represent notes that are staccato (1/2 duration)
Irregular groupings are notated above the duration line
Duration letters will always appear directly above the note/fret number it represents the
duration for.  Duration letters with no fret number below them represent rests.  Multi-
bar rests are notated in the form Wxn, where n is the number of bars to rest for.  Low
melody durations appear below the staff

Tablature Legend
----------------
 h   - hammer-on
 p   - pull-off
 b   - bend
 pb  - pre-bend
 r   - bend release (if no number after the r, then release immediately)
 /\  - slide into or out of (from/to "nowhere")
 s   - legato slide
 S   - shift slide
  - natural harmonic
[n]  - artificial harmonic
n(n) - tapped harmonic
 ~   - vibrato
 tr  - trill
 T   - tap
 TP  - trem. picking
 PM  - palm muting
\n/  - tremolo bar dip; n = amount to dip
 \n  - tremolo bar down
 n/  - tremolo bar up
/n\  - tremolo bar inverted dip
 =   - hold bend; also acts as connecting device for hammers/pulls
 <>  - volume swell (louder/softer)
 x   - on rhythm slash represents muted slash
 o   - on rhythm slash represents single note slash

Misc Legend
-----------
 |  - bar
||  - double bar
||o - repeat start
o|| - repeat end
*|  - double bar (ending)
 :  - bar (freetime)
 $  - Segno
 &  - Coda
Tempo markers -  = BPM(8/16=s8/s16), where s8 = swing 8ths, s16 = swing 16ths
Добавлено: 19.06.2015
Другие материалы по этой песне:

Страница создана 31.03.2015
http://primanota.ru/deep-purple/hush-live-chords.htm
Привет, Гость.
Предлагаем пройти революционный курс по гитаре.
Подарок от PrimaNota.Ru, забирай!