PrimaNota.ru - самый крупный в мире бесплатный архив песенных текстов, аккордов, табулатур и нот


Deafheaven - Irresistible - таба, видео

Регистрация Запомнить меня
Войти через:  Facebook Google Twitter Vk Yandex Mail.ru

Deafheaven - Irresistible - таба, видео

Печатать
Просмотров: 61
Авторы музыки: Kerry McCoy, George Clarke

Deafheaven
Irresistable
Tabbed by: Skippyguy

This is how I play the song. It's comprised of a few basic loops in the key of G major. Enjoy 


Loop 1 (0:00 - 0:10)

Guitar 1 (finger picked)

e|---------------------------------------------------------------|
B|---------------------------------------------------------------|
G|---7---7-----7-----7-------7---7-----7-----7-------------------|
D|---5------5-----5-----5----------------------------------------|
A|---------------------------7------7-----7-----7----------------|
E|---------------------------------------------------------------|


e|---------------------------------------------------------------|
B|---------------------------------------------------------------|
G|---7s9---9-----9-----9-------9---7-----7-----7-----------------|
D|---0--------0-----0-----0--------------------------------------|
A|---------------------------------------------------------------|
E|-----------------------------8------8-----8-----8--------------|


Guitar 2 (whole notes)

e|---------------------------------------------------------------|
B|---------------------------------------------------------------|
G|---------------------------------------------------------------|
D|---5~----------------------------------------------------------|
A|----------7~-----5~-----3~-------------------------------------|
E|---------------------------------------------------------------|


Loop 2 (0:10 - 0:28)

e|---------------------------------------------------------------|
B|---------------0------------------------0----------------------|
G|---------0--------0-----0---------0--------0-----0-------------|
D|------0-----0--------0---------2-----2--------2----------------|
A|---------------------------------------------------------------|
E|---3------------------------0----------------------------------|


e|---------------------------------------3-----------------------|
B|---------------3--------------------------0--------------------|
G|---------4--------4-----4--------0-----------0-----------------|
D|------4-----4--------4--------2-----2-----------2--------------|
A|---5-----------------------3-----------------------------------|
E|---------------------------------------------------------------|


Loop 3 (0:29 - 0:51)


e|---------------------------------------------------------------|
B|---------------------------------------------------------------|
G|---------------------------------------------------------------|
D|---------------------------------------------------------------|
A|---2~-----0----------------------------------------------------|
E|--------------3~-----------------------------------------------|


e|---------------------------------------------------------------|
B|---------------------------------------------------------------|
G|---------------------------------------------------------------|
D|---5--5p4---------------0h2--0---------------------------------|
A|----------------2--2h3----------3--2--3--2~--------------------|
E|---------------------------------------------------------------|


Loop 4 (0:51 - end) [NOTE: The part at 0:51 starts at the second phrase of this section]


e|---------------------------------------------------------------|
B|---8~-----7---5~-----------------------------------------------|
G|---------------------------------------------------------------|
D|---------------------------------------------------------------|
A|---------------------------------------------------------------|
E|---------------------------------------------------------------|


e|--------------------------7h8--7-------------------------------|
B|---12--12p10-----8--8h10----------10--8--10--8~----------------|
G|---------------------------------------------------------------|
D|---------------------------------------------------------------|
A|---------------------------------------------------------------|
E|---------------------------------------------------------------|


Piano part tabbed for guitar 

e|---3-----2------3-----2------3-----2------3-----2--------------|
B|---3-----3------3-----3------3-----3------3-----3--------------|
G|---------------------------------------------------------------|
D|-----------------------------0~--------------------------------|
A|------------------------------------------3~-------------------|
E|---3~-----------0~---------------------------------------------|


End on a G and that's it
Добавлено: 21.03.2016
Другие материалы по этой песне:

Страница создана 02.08.2013
http://primanota.ru/deafheaven/irresistible-chords.htm
Привет, Гость.
Предлагаем пройти революционный курс по гитаре.
Подарок от PrimaNota.Ru, забирай!