PrimaNota.ru - самый крупный в мире бесплатный архив песенных текстов, аккордов, табулатур и нот


Deafheaven - Brought To The Water - таба, видео

Регистрация Запомнить меня
Войти через:  Facebook Google Twitter Vk Yandex Mail.ru

Deafheaven - Brought To The Water - таба, видео

Печатать
Просмотров: 69
Title: Brought to the Water
Artist: Deafheaven
Album: New Bermuda


Been looking for a comprehensive tab of this song and I couldn't find one that I was
happy with, so I decided to make my own. The rest is in the works, but I figured I'd
get at least this much out there. If you have any corrections or even just
suggestions, please let me know!! 


Tempo = 200 bpm

     W       W       W       W       W       W       W       W
E |-------|-------|-------|-------|-------|-------|-------|-------|
B |-------|-------|-------|-------|-------|-------|-------|-------|
G |-(7)---|-(7)---|-(7)---|-(7)---|-(6)---|-(6)---|-(6)---|-(6)---|
D |--3----|--3----|--3----|--3----|--2----|--2----|--2----|--2----|
A |--5----|--5----|--5----|--5----|--4----|--4----|--4----|--4----|
D |--0----|--0----|--0----|--0----|--2----|--2----|--2----|--2----|

    W       W       W       W       W       W       W       W     
  |-------|-------|-------|-------|-------|-------|-------|-------|
  |-------|-------|-------|-------|-------|-------|-------|-------|
  |-(7)---|-(7)---|-(7)---|-(7)---|-(6)---|-(6)---|-(6)---|-(6)---|
  |--3----|--3----|--3----|--3----|--2----|--2----|--2----|--2----|
  |--5----|--5----|--5----|--5----|--4----|--4----|--4----|--4----|
  |--3----|--3----|--3----|--3----|--5----|--5----|--5----|--5----|

    W       W       W       W       W       W       W       W     
  |-------|-------|-------|-------|-------|-------|-------|-------|
  |-------|-------|-------|-------|-------|-------|-------|-------|
  |-(7)---|-(7)---|-(7)---|-(7)---|-(6)---|-(6)---|-(6)---|-(6)---|
  |--3----|--3----|--3----|--3----|--2----|--2----|--2----|--2----|
  |--5----|--5----|--5----|--5----|--4----|--4----|--4----|--4----|
  |--0----|--0----|--0----|--0----|--2----|--2----|--2----|--2----|

    W       W       W       W       W       W       W 
  |-------|-------|-------|-------|-------|-------|-------|-------|
  |-------|-------|-------|-------|-------|-------|-------|-------|
  |-(7)---|-(7)---|-(7)---|-(7)---|-(6)---|-(6)---|-(6)---|-(6)---|
  |--3----|--3----|--3----|--3----|--2----|--2----|--2----|--2----|
  |--5----|--5----|--5----|--5----|--4----|--4----|--4----|--4----|
  |--3----|--3----|--3----|--3----|--5----|--5----|--5----|--5----|
  
  Play 3 times
     e e e e sss sss    sss sss sss sss sss sss sss sss    e e e e e e e e e
  ||------------------|----------------------------------|-------------------|
  ||------------------|----------------------------------|-------------------|
  ||------------------|----------------------------------|-------------------|
  ||-7-7-7-7----------|----------------------------------|-7-------7---------|
  ||-5-5-5-5----------|----------------------------------|-5-------5---------|
  ||---------000-000--|-000-000-000-000-000-000-000-000--|---0-0-0---0-0-0---|
  
    e e e e sss sss    sss sss sss sss sss sss sss sss    e e e e e e e e e
  |------------------|----------------------------------|-------------------||
  |------------------|----------------------------------|-------------------||
  |------------------|----------------------------------|------------------o||
  |-8-8-8-8----------|----------------------------------|-8-------8--------o||
  |-5-5-5-5----------|----------------------------------|-5-------5---------||
  |---------000-000--|-000-000-000-000-000-000-000-000--|---0-0-0---0-0-0---||
  
  
  To be continued...

Добавлено: 21.03.2016
Вам также может быть интересно:
Другие материалы по этой песне:

Страница создана 21.03.2016
http://primanota.ru/deafheaven/brought-to-water-chords.htm
Привет, Гость.
Предлагаем пройти революционный курс по гитаре.
Подарок от PrimaNota.Ru, забирай!