PrimaNota.ru - самый крупный в мире бесплатный архив песенных текстов, аккордов, табулатур и нот


Deafheaven - Please Remember - таба, видео

Регистрация Запомнить меня
Войти через:  Facebook Google Twitter Vk Yandex Mail.ru

Deafheaven - Please Remember - таба, видео

Печатать
Просмотров: 224
Новый альбом группы 'Черный Кузнец' по культовому сериалу 'Сверхъестественное'!
Авторы музыки: Kerry McCoy, George Clarke
Авторы текста: George Clarke
Author/Artist: Deafheaven
Title: Please Remember
Album: Sunbather
Transcribed by: KALD DRØMME

This song is pretty simple. All you need it tons of reverb and delay on one of the guitars.

Guitar 1: EADGBE /w reverb
Guitar 2: EADGBE /w reverb and delay
Guitar 3: EADGBE /w reverb


The song starts out with the first guitar and then the second jumps in and then the 
third. The riffs do not
change at all.


Riff 1 (Guitar 1):

For this just find the strumming pattern for each chord and you're good.

|--0---0---0---3---3---|
|--0---0---0---0---0---|
|--0---0---0---0---0---|
|--2---4---5---0---0---|
|--2---2---3---2---0---|
|--0---0---0---3---2---|


Riff 2 (Guitar 2):

Just strum a couple times for each chord, sometimes just once.

|--0---0---0---3---3---|
|--0---0---0---0---0---|
|--0---0---0---0---0---|
|--2---4---5---0---0---|
|--2---2---3---2---0---|
|--0---0---0---3---2---|


Riff 3 (Guitar 3):

|--------------------------------------------------|
|--------------------------------------------------|
|--7\5~--5\4~--4\2~--2---2/4v~---7\5~--5\4~---4b~--|
|--------------------------------------------------|
|--------------------------------------------------|
|--------------------------------------------------|


This is like my third tab. I'm pretty sure this is 90% correct. If you have any 
correction please comment and I will go over it and fix what needs to be fixed.

Side note: I will probably do more tabs for Deafheaven, since there are none. I'm 
currently learning Dream House.
Добавлено: 26.08.2014
Другие материалы по этой песне:
  • Аккорды и текст

Страница создана 26.08.2014
http://primanota.ru/deafheaven/please-remember-chords.htm
Привет, Гость.
Предлагаем пройти революционный курс по гитаре.
Подарок от PrimaNota.Ru, забирай!