PrimaNota.ru - самый крупный в мире бесплатный архив песенных текстов, аккордов, табулатур и нот


Deafheaven - Baby Blue - таба, видео

Регистрация Запомнить меня
Войти через:  Facebook Google Twitter Vk Yandex Mail.ru

Deafheaven - Baby Blue - таба, видео

Печатать
Просмотров: 66
-------------------------------------------------------------------------------
                             Baby Blue (intro) - Deafheaven
-------------------------------------------------------------------------------
Tabbed by: tcdalton215
E-mail: tcdalton215@gmail.com

Tuning:

e|----------0---------------0---------------0---------------0-------------|
B|------0-----0---0-----0-----0---0-----3-----3---3-----2-----2---2-------|
G|----2---2-----2-----2---2-----2-----2---2-----2-----2---2-----2---------|
D|--4---------------4---------------4---------------4---------------------|
A|------------------------------------------------------------------------|
E|------------------------------------------------------------------------|

e|----------0---------------0---------------0---------------0-------------|
B|------0-----0---0-----0-----0---0-----3-----3---3-----2-----2---2-------|
G|----2---2-----2-----2---2-----2-----2---2-----2-----2---2-----2---------|
D|--0---------------0---------------0---------------0---------------------|
A|------------------------------------------------------------------------|
E|------------------------------------------------------------------------|

e|------------------------------------------------------------------------|
B|----------0---------------0---------------0---------------0-------------|
G|------2-----2---2-----2-----2---2-----1-----1---1-----1-----1---1-------|
D|----2---2-----2-----2---2-----2-----2---2-----2-----2---2-----2---------|
A|--4---------------4---------------4---------------4---------------------|
E|------------------------------------------------------------------------|

e|------------------------------------------------------------------------|
B|----------0---------------0---------------0---------------0-------------|
G|------2-----2---2-----2-----2---2-----1-----1---1-----1-----1---1-------|
D|----2---2-----2-----2---2-----2-----2---2-----2-----2---2-----2---------|
A|--0---------------0---------------0---------------0---------------------|
E|------------------------------------------------------------------------|

e|------------------------------------------------------------------------|
B|----------0---------------0---------------0---------------0-------------|
G|------4-----4---4-----4-----4---4-----4-----4---4-----4-----4---4-------|
D|----2---2-----2-----2---2-----2-----2---2-----2-----2---2-----2---------|
A|--4---------------4---------------0---------------0---------------------|
E|------------------------------------------------------------------------|

e|------------------------------------------------------------------------|
B|----------0---------------0---------------0---------------0-------------|
G|------0-----0---0-----0-----0---0-----0-----0---0-----0-----0---0-------|
D|----2---2-----2-----2---2-----2-----2---2-----2-----2---2-----2---------|
A|--2---------------2---------------0---------------0---------------------|
E|------------------------------------------------------------------------|

************************************

| /   slide up
| \   slide down
| h   hammer-on
| p   pull-off
| ~   vibrato
| +   harmonic
| x   Mute note
| b   Bend
| pb  Pre-bend
| br  Bend release
| pbr Pre-bend release
| brb Bend release bend

************************************
Добавлено: 21.03.2016
Другие материалы по этой песне:

Страница создана 21.03.2016
http://primanota.ru/deafheaven/baby-blue-chords.htm
Привет, Гость.
Предлагаем пройти революционный курс по гитаре.
Подарок от PrimaNota.Ru, забирай!