PrimaNota.ru - самый крупный в мире бесплатный архив песенных текстов, аккордов, табулатур и нот


Dance Gavin Dance - The Robot With Human Hair Part 1 - таба, видео

Регистрация Запомнить меня
Войти через:  Facebook Google Twitter Vk Yandex Mail.ru

Dance Gavin Dance - The Robot With Human Hair Part 1 - таба, видео

Печатать
Просмотров: 131
Guitar 1
E||--12--------------12--------------|--12--------------12--------------|
B||------12--13----------12--13------|------12--13----------12--13------|
G||--------------14--------------14--|--------------12--------------12--|
D||----------------------------------|----------------------------------|
A||----------------------------------|----------------------------------|
E||----------------------------------|----------------------------------|


   
--12--------------12--------------|--12--------------12--------------|
------10--13----------10--13------|------10--13----------10--13------|
--------------10--------------10--|--------------10--------------10--|
----------------------------------|----------------------------------|
----------------------------------|----------------------------------|
----------------------------------|----------------------------------|


  
--12--------------12--------------|--12--------------12--------------|
------12--13----------12--13------|------12--13----------12--13------|
--------------14--------------14--|--------------12--------------12--|
----------------------------------|----------------------------------|
----------------------------------|----------------------------------|
----------------------------------|----------------------------------|


   
--12--------------12--------------|--12--------------12--------------||
------10--13----------10--13------|------10--13----------10--13------||
--------------10--------------10--|--------------10--------------10--||
----------------------------------|----------------------------------||
----------------------------------|----------------------------------||
----------------------------------|----------------------------------||




Guitar 2
E||--12------------------------------|--12------------------------------|
B||------12--13----------------------|------12--13----------------------|
G||--------------14~-----------------|--------------12~-----------------|
D||----------------------------------|----------------------------------|
A||----------------------------------|----------------------------------|
E||----------------------------------|----------------------------------|


-----------------------------------|-----------------------------------|
-----------------------------------|-----------------------------------|
-----------12S--10-----------------|-----------12S--10-----------------|
-----------------------12--12--14--|-----------------------12--12--14--|
--12S--15--------------------------|--12S--15--------------------------|
-----------------------------------|-----------------------------------|
Добавлено: 18.04.2012
Другие материалы по этой песне:
  • Аккорды и текст

Страница создана 18.04.2012
http://primanota.ru/dance-gavin-dance/the-robot-with-human-hair-part-1-chords.htm
Привет, Гость.
Предлагаем пройти революционный курс по гитаре.
Подарок от PrimaNota.Ru, забирай!