PrimaNota.ru - самый крупный в мире бесплатный архив песенных текстов, аккордов, табулатур и нот


Dance Gavin Dance - Strawberry Swisher Pt 3 - бас-таба, видео

Регистрация Запомнить меня
Войти через:  Facebook Google Twitter Vk Yandex Mail.ru

Dance Gavin Dance - Strawberry Swisher Pt 3 - бас-таба, видео

Печатать
Просмотров: 44
Tabbed by: Joshua Garcia (joshuag523@aol.com)

Tabs for the song: Strawberry Swisher, Pt. 3 by Dance Gavin Dance
Please rate and let me know if you have any corrections. Thank you.


Tuning: Standard (E A D G)


Intro
Bass:
G||---------------------------------------------------|
D||---------------------------------------------------|
A||--------------4-4-4-4-4-----------------4-4-4-4-4--|
E||--2-2-2-2/4-6---------------2-2-2-2/4-6------------|


G||---------------------------------------------------|
D||---------------------------------------------------|
A||--------------4-4-4-4-4----------------------------| x3
E||--2-2-2-2/4-6---------------6-6-6-6-6---4-4-4-4-4--|


G||---------------------------------------------------|
D||---------------------------------------------------|
A||--------------4-4-4-4-4-----------------4-4-4-4-4--|
E||--2-2-2-2/4-6---------------2-2-2-2/4-6------------|


G||-----------------------------------------------------------------------------|
D||-----------------------------------------------------------------------------|
A||--------------4-4-4-4-4------------------------------------------------------|
E||--2-2-2-2/4-6---------------6-6-6-6-6-6-6-6-6-6-6-6-4-4-4-4-4-4-4-4-4-4-4-4--|



Chorus
G||---------------------------------------|--------------------------------------|
D||---------------------------------------|-----------------------------3--------|
A||--9--9----6--6----8--8----1--4--1--1/--|--9--9----6--6----8--8----1-----1--4--|
E||---------------------------------------|--------------------------------------|


G||---------------------------------------|--------------------------------------|
D||---------------------------------------|--------------------------------------|
A||--9--9----6--6----8--8----1--4--1--1/--|--9--9----6--6----8--8----1-----1--4--|
E||---------------------------------------|-----------------------------4--------|


G||---------------------------------------|--------------------------------------|
D||---------------------------------------|-----------------------------3--------|
A||--9--9----6--6----8--8----1--4--1--1/--|--9--9----6--6----8--8----1-----1--4--|
E||---------------------------------------|--------------------------------------|


G||-------------------------------------------------|
D||-----------------8----------6--------------------|
A||--9--9/11---6--6-----8--6-8---8-6---1--4--1--1/--|
E||-------------------------------------------------|


G||------------------------------------------------|
D||-----------------8----------6-------------------|
A||--9--9/11---6--6-----8--6-8---8-6---1~----------|
E||------------------------------------------------|



Pre-Verse
G||-------------------------------------------------------------------------------------------------------|
D||-------------------------------------------------------------------------------------------------------|
A||--4--4--4--4--4--4--4--4-----------------------------------------------------6--6--6--6--6--6--6--6----| x2
E||-------------------------0-4--4--4--4--4--4--4--4-0-2--2--2--2--2--2--2--2-0------------------------0--|

G||----------------------------------------------------------------------------|
D||----------------------------------------------------------------------------|
A||--4--4--4--4--4--4--4--4----------------------------6--6--6--6--6--6--6--6--|
E||-------------------------0-4--4--4--4--4--4--4--4-0-------------------------|

G||-------------------------------------------|
D||-------------------------------------------|
A||--99999999999999999999999999999999-9~---\--|
E||-------------------------------------------|



Verse
G||---------------------------------------------------|
D||---------------------------------------------------|
A||--------------4-4-4-4-4-----------------4-4-4-4-4--|
E||--2-2-2-2/4-6---------------2-2-2-2/4-6------------|


G||---------------------------------------------------|
D||---------------------------------------------------|
A||--------------4-4-4-4-4----------------------------| x3
E||--2-2-2-2/4-6---------------6-6-6-6-6---4-4-4-4-4--|


G||---------------------------------------------------|
D||---------------------------------------------------|
A||--------------4-4-4-4-4-----------------4-4-4-4-4--|
E||--2-2-2-2/4-6---------------2-2-2-2/4-6------------|


G||-----------------------------------------------------------------------------|
D||-----------------------------------------------------------------------------|
A||--------------4-4-4-4-4------------------------------------------------------|
E||--2-2-2-2/4-6---------------6-6-6-6-6-6-6-6-6-6-6-6-4-4-4-4-4-4-4-4-4-4-4-4--|



Chorus
G||---------------------------------------|--------------------------------------|
D||---------------------------------------|-----------------------------3--------|
A||--9--9----6--6----8--8----1--4--1--1/--|--9--9----6--6----8--8----1-----1--4--|
E||---------------------------------------|--------------------------------------|


G||---------------------------------------|--------------------------------------|
D||---------------------------------------|--------------------------------------|
A||--9--9----6--6----8--8----1--4--1--1/--|--9--9----6--6----8--8----1-----1--4--|
E||---------------------------------------|-----------------------------4--------|


G||---------------------------------------|--------------------------------------|
D||---------------------------------------|-----------------------------3--------|
A||--9--9----6--6----8--8----1--4--1--1/--|--9--9----6--6----8--8----1-----1--4--|
E||---------------------------------------|--------------------------------------|


G||-------------------------------------------------|
D||-----------------8----------6--------------------|
A||--9--9/11---6--6-----8--6-8---8-6---1--4--1--1/--|
E||-------------------------------------------------|


G||------------------------------------------------|
D||-----------------8----------6-------------------|
A||--9--9/11---6--6-----8--6-8---8-6---1~----------|
E||------------------------------------------------|



Outro
G||----------------------------------------------------------------|
D||----------------------------------------------------------------|
A||----------6--------------4--------------6--------------4--------| x2
E||--2--2--2------0-4--4--6------0-2--2--2------0-4--4--6-------0--|


G||-----------------------------------------------------------------------|
D||-----------------------------------------------------------------------|
A||------------6----------------4----------------6----------------4-------|
E||--2-2-2-2-2------0-4-4-4-4-6------0-2-2-2-2-2------0-4-4-4-4-6------0--|


G||-------------------------------------------------------------------|
D||-------------------------------------------------------------------|
A||------------6----------------4----------------6----------------4\--|
E||--2-2-2-2-2------0-4-4-4-4-6------0-2-2-2-2-2------0-4-4-4-4-6-----|




Tablature Legend
----------------
 h   hammer-on
 p   pull-off
 b   bend
 pb  pre-bend
 r   release bend
 ~   hold / vibrato
 .   palm mute
 /   slide up
 \   slide down
 *   pinch harmonic
 '   natural harmonic
 x   mute note
 T   tap
Добавлено: 15.04.2016
Другие материалы по этой песне:

Страница создана 31.12.2013
http://primanota.ru/dance-gavin-dance/strawberry-swisher-pt-3-chords.htm
Привет, Гость.
Предлагаем пройти революционный курс по гитаре.
Подарок от PrimaNota.Ru, забирай!