PrimaNota.ru - самый крупный в мире бесплатный архив песенных текстов, аккордов, табулатур и нот


Dance Gavin Dance - Perfect - текст песни, таба, видео

Регистрация Запомнить меня
Войти через:  Facebook Google Twitter Vk Yandex Mail.ru

Dance Gavin Dance - Perfect - текст песни, таба, видео

Печатать
Просмотров: 149
-------------------------------------------------------------------------------
                             Perfect - Dance Gavin Dance
-------------------------------------------------------------------------------
Tabbed by: Lostronaut


Tuning: Standard EADGBE

Guitar 1. 0:00 - 0:27 Chorus
e|---------------------------------------------------------------------------|
B|---------------------------------------------------------------------------|
G|-------9--12-------------9----9--10--9~------------------------------------|
D|---12-------------9--10----------------------------------------------------|
A|---------------------------------------------------------------------------|
E|---------------------------------------------------------------------------|

e|---------------------------------------------------------------------------|
B|--------------------------------12--10-------------------------------------|
G|-------9--12-------------9--------------12--9------------------------------|
D|---12-------------9--10-----10---------------------------------------------|
A|---------------------------------------------------------------------------|
E|---------------------------------------------------------------------------| x3

e|---------------------------------------------------------------------------|
B|---------------------------------------------------------------------------|
G|-------9--12-------------9----9--10--9~------------------------------------|
D|---12-------------9--10----------------------------------------------------|
A|---------------------------------------------------------------------------|
E|---------------------------------------------------------------------------|

e|--------------------------------15--12------12-----------------------------|
B|----------------------------------------13---------------------------------|
G|-------9--12-------------9-------------------------------------------------|
D|---12-------------9--10-----10---------------------------------------------|
A|---------------------------------------------------------------------------|
E|---------------------------------------------------------------------------| 

Guitar 2. 0:00 - 0:27 Chorus
e|---------------------------------------------------------------------------|
B|---------------------------------------------------------------------------|
G|---------------------------------------------------------------------------|
D|---2--2--3--2----2--2--3--2----2--3--2-------------------------------------|
A|---3--3--3--3----3--3--3--3----3--3--3-------------------------------------|
E|---1--1--1--1----1--1--1--1----1--1--1-------------------------------------|

e|---------------------------------------------------------------------------|
B|---3--3--5--3----3--3--5--3----3--5--3-------------------------------------|
G|---0--0--0--0----0--0--0--0----0--0--0-------------------------------------|
D|---2--2--2--2----2--2--2--2----2--2--2-------------------------------------|
A|---3--3--3--3----3--3--3--3----3--3--3-------------------------------------|
E|---------------------------------------------------------------------------|x4


 Guitar 2. 0:28 - 0:55 Verse  
e|---------------------------------------------------------------------------|
B|---------------------------------------------------------------------------|
G|--------2//4---------7//9--------------------------------------------------|
D|---2----3//5----5----5//7--------------------------------------------------|
A|---3------------7----------------------------------------------------------|
E|---------------------------------------------------------------------------| x4


Guitar 1. 0:56 - 1:23 Chorus
e|---------------------------------------------------------------------------|
B|---------------------------------------------------------------------------|
G|-------9--12-------------9----9--10--9~------------------------------------|
D|---12-------------9--10----------------------------------------------------|
A|---------------------------------------------------------------------------|
E|---------------------------------------------------------------------------|

e|---------------------------------------------------------------------------|
B|--------------------------------12--10-------------------------------------|
G|-------9--12-------------9--------------12--9------------------------------|
D|---12-------------9--10-----10---------------------------------------------|
A|---------------------------------------------------------------------------|
E|---------------------------------------------------------------------------| x3

e|---------------------------------------------------------------------------|
B|---------------------------------------------------------------------------|
G|-------9--12-------------9----9--10--9~------------------------------------|
D|---12-------------9--10----------------------------------------------------|
A|---------------------------------------------------------------------------|
E|---------------------------------------------------------------------------|

e|--------------------------------15--12------12-----------------------------|
B|----------------------------------------13---------------------------------|
G|-------9--12-------------9-------------------------------------------------|
D|---12-------------9--10-----10---------------------------------------------|
A|---------------------------------------------------------------------------|
E|---------------------------------------------------------------------------| 


Guitar 2. 0:56 - 1:23 Chorus
e|---------------------------------------------------------------------------|
B|---------------------------------------------------------------------------|
G|---------------------------------------------------------------------------|
D|---2--2--3--2----2--2--3--2----2--3--2-------------------------------------|
A|---3--3--3--3----3--3--3--3----3--3--3-------------------------------------|
E|---1--1--1--1----1--1--1--1----1--1--1-------------------------------------|

e|---------------------------------------------------------------------------|
B|---3--3--5--3----3--3--5--3----3--5--3-------------------------------------|
G|---0--0--0--0----0--0--0--0----0--0--0-------------------------------------|
D|---2--2--2--2----2--2--2--2----2--2--2-------------------------------------|
A|---3--3--3--3----3--3--3--3----3--3--3-------------------------------------|
E|---------------------------------------------------------------------------|x4

           1:23 - 1:49 
e|---------------------------------------------------------------------------|
B|---------------------------------------------------------------------------|
G|--------2//4---------7//9--------------------------------------------------|
D|---2----3//5----5----5//7--------------------------------------------------|
A|---3------------7----------------------------------------------------------|
E|---------------------------------------------------------------------------| x2  

e|---------------------------------------------------------------------------|
B|---------------------------------------------------------------------------|
G|--------------------4-4-4-4-4-4-4-4-------------------9-9-9-9-9-9-9-9------|
D|---2-2-2-2-2-2-2-2--5-5-5-5-5-5-5-5--5-5-5-5-5-5-5-5--7-7-7-7-7-7-7-7------|
A|---3-3-3-3-3-3-3-3-------------------7-7-7-7-7-7-7-7-----------------------|
E|---------------------------------------------------------------------------| x2 
     x x x x x x x x  x x x x x x x x  x x x x x x x x  x x x x x x x x


                                    
1:50 - 2:18 Bridge                          
e|---------------------------------------------------------------------------|
B|----------------------------------3-3-x-x-x--x-3-3-5-3--3-5--x-x-----------|
G|----------------------------------0-0-x-x-x--x-0-0-0-0--0-0--x-x-----------|
D|---2-3-x-x-x--x-x-x-2-3-2-x--x-x--2-2-x-x-x--x-2-2-2-2--2-2--x-x-----------|
A|---3-3-x-x-x--x-x-x-3-3-3-x--x-x--3-3-x-x-x--x-3-3-3-3--3-3--x-x-----------|
E|---1-1-x-x-x--x-x-x-1-1-1-x--x-x-------------------------------------------|


Guitar 1. 2:19 - 2:47 Chorus/Outro
e|---------------------------------------------------------------------------|
B|---------------------------------------------------------------------------|
G|-------9--12-------------9----9--10--9~------------------------------------|
D|---12-------------9--10----------------------------------------------------|
A|---------------------------------------------------------------------------|
E|---------------------------------------------------------------------------|

e|---------------------------------------------------------------------------|
B|---------------------------------------------------------------------------|
G|-------9--12-------------9------9--10--9-----------------------------------|
D|---12-------------9--10-----10------------10-------------------------------|
A|---------------------------------------------------------------------------|
E|---------------------------------------------------------------------------| x4

Guitar 2. 2:19 - 2:47 Chorus/Outro
e|---------------------------------------------------------------------------|
B|---------------------------------------------------------------------------|
G|---------------------------------------------------------------------------|
D|---2--2--3--2----2--2--3--2----2--3--2-------------------------------------|
A|---3--3--3--3----3--3--3--3----3--3--3-------------------------------------|
E|---1--1--1--1----1--1--1--1----1--1--1-------------------------------------|

e|---------------------------------------------------------------------------|
B|---3--3--5--3----3--3--5--3----3--5--3-------------------------------------|
G|---0--0--0--0----0--0--0--0----0--0--0-------------------------------------|
D|---2--2--2--2----2--2--2--2----2--2--2-------------------------------------|
A|---3--3--3--3----3--3--3--3----3--3--3-------------------------------------|
E|---------------------------------------------------------------------------| x4


ends with 

e|-----|
B|-----|
G|-----|
D|--2--|
A|--3--|
E|--1--|




************************************

| /   slide up
| \   slide down
| h   hammer-on
| p   pull-off
| ~   vibrato
| +   harmonic
| x   Mute note
| b   Bend

************************************
Добавлено: 19.07.2015
Другие материалы по этой песне:
  • Аккорды и текст

Страница создана 10.10.2014
http://primanota.ru/dance-gavin-dance/perfect-chords.htm
Привет, Гость.
Предлагаем пройти революционный курс по гитаре.
Подарок от PrimaNota.Ru, забирай!