PrimaNota.ru - самый крупный в мире бесплатный архив песенных текстов, аккордов, табулатур и нот


Dance Gavin Dance - Privilously Poncheezied - таба, видео

Регистрация Запомнить меня
Войти через:  Facebook Google Twitter Vk Yandex Mail.ru

Dance Gavin Dance - Privilously Poncheezied - таба, видео

Печатать
Просмотров: 86
-------------------------------------------------------------------------------
                             Privilously Poncheezied - Dance Gavin Dance
-------------------------------------------------------------------------------
Tabbed by: balfour123
Email:

Tuning: Standard

e|---------9--12h14----------------9b---------------14-----------------------|
B|-------0----------14--10h12------9b---10h12p10-----------------------------|
G|----11----------------------11------- 11----------12-----------------------|
D|--0------------------------------------------------------------------------|
A|---------------------------------------------------------------------------|
E|---------------------------------------------------------------------------|

e|---------9--12h14----------------9b----------------------------------------|
B|-------0----------14--10h12------9b---10h12p10---10h12p10------------------|
G|----11----------------------11------- 11---------11------------------------|
D|--0------------------------------------------------------------------------|
A|---------------------------------------------------------------------------|
E|---------------------------------------------------------------------------|


************************************

| /   slide up
| \   slide down
| h   hammer-on
| p   pull-off
| ~   vibrato
| +   harmonic
| x   Mute note
| b   Bend
| pb  Pre-bend
| br  Bend release
| pbr Pre-bend release
| brb Bend release bend

************************************
Добавлено: 15.07.2012
Другие материалы по этой песне:

Страница создана 24.05.2012
http://primanota.ru/dance-gavin-dance/privilously-poncheezied-chords.htm
Привет, Гость.
Предлагаем пройти революционный курс по гитаре.
Подарок от PrimaNota.Ru, забирай!