PrimaNota.ru - самый крупный в мире бесплатный архив песенных текстов, аккордов, табулатур и нот


Dance Gavin Dance - Strawberry Andre - таба, бас-таба, видео

Регистрация Запомнить меня
Войти через:  Facebook Google Twitter Vk Yandex Mail.ru

Dance Gavin Dance - Strawberry Andre - таба, бас-таба, видео

Печатать
Просмотров: 128
Strawberry Andre
By:Dance Gavin Dance
Album:Downtown Battle Mountain

You could play it in standard but i think in some parts it'll be 
a little off..^^

intro:
|-----------------------------------------------------|
|-----------------------------------------------------|
|-----------------------------------------------------|
|--------------------------------------10p0-10p0-10p0-|
|-------5-7-8--------5\3---------5-7-8----------------|
|-0-5-7--------0-5-7-----3--0-5-7---------------------| 

|------------------------------------------------------|
|------------------------------------------------------|
|------------------------------------------------------|
|--------------------------------------10p0-10p0-10/12-|
|-------5-7-8--------5\3---------5-7-8-----------------|
|-0-5-7--------0-5-7-----3--0-5-7----------------------|

|-----------------------------------------------------|
|-----------------------------------------------------|
|-----------------------------------------------------|
|--------------------------------------10p0-10p0-10p0-|
|-------5-7-8--------5\3---------5-7-8----------------|
|-0-5-7--------0-5-7-----3--0-5-7---------------------| 

|------------------------------------------------------|
|------------------------------------------------------|
|------------------------------------------------------|
|--------------------------------------10p0-10p0-10/12-|
|-------5-7-8--------5\3---------5-7-8-----------------|
|-0-5-7--------0-5-7-----3--0-5-7----------------------|

then:
 |-------------------------------------------------|
 |-------------------------------------------------|
 |-------------------------------------------------|
 |-10-10--13-13--8-8--6-6---10-10--13-13-8-8-11-11-| x4
 |-10-10--13-13--8-8--6-6---10-10--13-13-8-8-11-11-|
 |-10-10--13-13--8-8--6-6---10-10--13-13-8-8-11-11-|

then this part:
 |-------------------------------|
 |-------------------------------|
 |-------------------------------|
 |-11------10-----6------8-------| x2
 |-11(x24)-10(x8)-6(x16)-8(x16)--|
 |-11------10-----6------8-------|

(1:07)
 |---------------------------|
 |---------12~------10~------|
 |--5~-----10~------8~-------|
 |--3~-----------------------|
 |---------------------------|
 |---------------------------|

(1:13)
 |--------------------------------------------|        |
 |--------------------------------------------|        |
 |--------------------------------------------|        |
 |-12-12---12---12-12---12---12-12---12-12-12-| x3     |
 |-12-12---12---12-12---12---12-12---12-12-12-|        |
 |-12-12---12---12-12---12---12-12---12-12-12-|        |
           .            .                              |play this stuff
                                                       |    twice...
 |--------------------------------------------|        |
 |--------------------------------------------|        |
 |--------------------------------------------|        |
 |-11-11---11---11-11---11---11-11---11-11-11-|        |
 |-11-11---11---11-11---11---11-11---11-11-11-|        |
 |-11-11---11---11-11---11---11-11---11-11-11-|        |
           .            .

(1:37)
guitar2:
 |----------------------------------------------------------|
 |----------------------------------------------------------|
 |-------------------------------------------------13131313-|
 |-777777777777--13131313--111111111111111111111111---------| x5
 |----------------------------------------------------------|
 |----------------------------------------------------------|

guitar1:(comes in at [1:43])
 |------------------|
 |------------------|
 |--12-12---12-12---|
 |--10-10---10-10---| x4 (listen to song for timing...)
 |------------------|
 |------------------|

(2:07)
intro again:
|-----------------------------------------------------|
|-----------------------------------------------------|
|-----------------------------------------------------|
|--------------------------------------10p0-10p0-10p0-|
|-------5-7-8--------5\3---------5-7-8----------------|
|-0-5-7--------0-5-7-----3--0-5-7---------------------| 

|------------------------------------------------------|
|------------------------------------------------------|
|------------------------------------------------------|
|--------------------------------------10p0-10p0-10/12-|
|-------5-7-8--------5\3---------5-7-8-----------------|
|-0-5-7--------0-5-7-----3--0-5-7----------------------|
[play intro a total of 4x..]


(2:26)
 |------------------------------|
 |------------------------------|
 |------------------------------|
 |-12--1212--12--1212--11--1111-|
 |-12--1212--12--1212--11--1111-|
 |-12--1212--12--1212--11--1111-|

then:
 |--------------------------------------------|        |
 |--------------------------------------------|        |
 |--------------------------------------------|        |
 |-12-12---12---12-12---12---12-12---12-12-12-| x3     |
 |-12-12---12---12-12---12---12-12---12-12-12-|        |
 |-12-12---12---12-12---12---12-12---12-12-12-|        |
           .            .                              |play this stuff
                                                       |    twice...
 |--------------------------------------------|        |
 |--------------------------------------------|        |
 |--------------------------------------------|        |
 |-11-11---11---11-11---11---11-11---11-11-11-|        |
 |-11-11---11---11-11---11---11-11---11-11-11-|        |
 |-11-11---11---11-11---11---11-11---11-11-11-|        |
           .            .

(2:57)
 |---------------------------|
 |---------------------------|
 |----i havent figured-------|
 |----this part out yet..----|
 |---------------------------|
 |---------------------------|

End on:
 |-99----99------------------------99----999----|
 |-77----77------------------------77----777----|
 |----------------------------------------------|
 |----------------------------------------------|
 |----------------------------------------------|
 |----------------------------------------------|



/gg
harhar..^^



Добавлено: 26.04.2012
Другие материалы по этой песне:

Страница создана 18.04.2012
http://primanota.ru/dance-gavin-dance/strawberry-andre-chords.htm
Привет, Гость.
Предлагаем пройти революционный курс по гитаре.
Подарок от PrimaNota.Ru, забирай!