PrimaNota.ru - самый крупный в мире бесплатный архив песенных текстов, аккордов, табулатур и нот


Cruachan - Spancill Hill - текст песни, таба, видео

Регистрация Запомнить меня
Войти через:  Facebook Google Twitter Vk Yandex Mail.ru

Cruachan - Spancill Hill - текст песни, таба, видео

Печатать
Просмотров: 147
TITLE: Spancill Hill
BAND: Cruachan
ALBUM: Folk-lore
MUSICIANS: John O'Fathaigh,Joe Farrell,John
Clohessy,Keith Fay,Karen Gilligan
TRANSCRIBED BY: Guillermo Gerling (lgerling@yahoo.com)


 ^ - hammer on, pull off                   
 b - bend string up                        
 r - release bend 			   
 / - slide up     			   
 \ - slide down                            
 ~ - vibrato 
 T - tap            
 x - struck string                         
 . - play the note and then mute it    
   - raising volume   
PM - palm mute                            
AH - Artificial Harmonic  
NH - Natural Harmonic
\  / - Tremolo Bar
 \/

Standard E-tunning: (EADGBe)

Guitar enters until the middle of the song, playing
the main melody...

e|-----------------------------------------------------------|
B|-----------------------------------------------------------|
G|-----------------------------------------------------------|
D|--5--5-------5----5--3----0--------------3-----------------|
A|----------3------------------1----3--3/5------3----1--3----|
E|-----------------------------------------------------------|

|----------------------------------------------------------------------|
|----------------------------------------------------------------------|
|----------------------------------------------------------------------|
|--5--5---/10--10----12--10----8------------8----10--12/13/12----10----|
|---------------------------------10----12--------------------10-------|
|----------------------------------------------------------------------|

|-----------------------------------------------------------------------|
|-----------------------------------------------------------------------|
|-----------------------------------------------------------------------|
|--5--5---/10--10----12--10----8------------8----8/10--7----------------|
|---------------------------------10----12-----------------10---8----8--|
|-----------------------------------------------------------------------|

|-----------------------------------------------------------|
|-----------------------------------------------------------|
|-----------------------------------------------------------|
|--5--5-------5----5--3----0--------------3-----------------|
|----------3------------------1----3--3/5------3----1--3----|
|-----------------------------------------------------------|




|-----------------------------------------------------------|
|-----------------------------------------------------------|
|-----------------------------------------------------------|
|--5--5-------5----5--3----0--------------3-----------------|
|----------3------------------1----3--3/5------3----1--3----|
|-----------------------------------------------------------|

|----------------------------------------------------------------------|
|----------------------------------------------------------------------|
|----------------------------------------------------------------------|
|--5--5---/10--10----12--10----8------------8----10--12/13/12----10----|
|---------------------------------10----12--------------------10-------|
|----------------------------------------------------------------------|

|-----------------------------------------------------------------------|
|-----------------------------------------------------------------------|
|-----------------------------------------------------------------------|
|--5--5---/10--10----12--10----8------------8----8/10-8--7--------------|
|---------------------------------10----12-----------------10---8----8--|
|-----------------------------------------------------------------------|

|-----------------------------------------------------------|
|-----------------------------------------------------------|
|-----------------------------------------------------------|
|--5--5-------5----5--3----0--------------3----5----3--5----|
|----------3------------------1----3--3/5------3----1--3----|
|-----------------------------------------------------------|


     
Добавлено: 29.06.2013
Другие материалы по этой песне:
  • Аккорды и текст

Страница создана 08.03.2012
http://primanota.ru/cruachan/spancill-hill-chords.htm
Привет, Гость.
Предлагаем пройти революционный курс по гитаре.
Подарок от PrimaNota.Ru, забирай!