PrimaNota.ru - самый крупный в мире бесплатный архив песенных текстов, аккордов, табулатур и нот


Cruachan - Victory Reel - таба, видео

Регистрация Запомнить меня
Войти через:  Facebook Google Twitter Vk Yandex Mail.ru

Cruachan - Victory Reel - таба, видео

Печатать
Просмотров: 125
TITLE: Victory Reel 
BAND: Cruachan
ALBUM: Folk-lore
MUSICIANS: John O'Fathaigh,Joe Farrell,John
Clohessy,Keith Fay,Karen Gilligan
TRANSCRIBED BY: Guillermo Gerling (lgerling@yahoo.com)


 ^ - hammer on, pull off                   
 b - bend string up                        
 r - release bend 			   
 / - slide up     			   
 \ - slide down                            
 ~ - vibrato 
 T - tap            
 x - struck string                         
 . - play the note and then mute it    
   - raising volume   
PM - palm mute                            
AH - Artificial Harmonic  
NH - Natural Harmonic
\  / - Tremolo Bar
 \/


Standard tunning: (EADGBe)
-NOTE: This song seems to be a continuation of Bloody Sunday, 
 so it could be played on the previous Down-D tunning, but
 the truth is that it is easier to play on a standard E


e|-------------------------------------------------|
B|-------------------------------------------------|
G|-------------------------------------------------|
D|-------------------------------------------------|
A|--3-----0----3--0--------5--3--1--0-----0--1--0--|-|
E|-----1-------------1--1--------------3-----------| |
                                                    
|X2
|--------------------------------------------------| |
|--------------------------------------------------|-|
|--------------------------------------------------|
|--------------------------------------------------|
|--3--0--1-----------0-----1-----0-----------------|
|-----------3--1--1-----1-----1-----3--1-----------|


|---------------------------------------------------|
|---------------------------------------------------|
|---------------------------------------------------|
|---------------------------------------------------|
|--3-----0----3--0--------5--3--1--0-----0--1--0----|-----|
|-----1-------------1--1--------------3-------------| 
   |
                                                      
   |X2
|-------------------------------------------------------| |
|-------------------------------------------------------|-|
|-------------------------------------------------------|
|--7----------7-----------------------------------2--3--|
|-----3-3-3-3----3-3-3-3----0--1--3--5----3--5----------|
|-------------------------------------------------------|


|----------------------------------------------------------|
|----------------------------------------------------------|
|-----------------------------------------------2----------|
|--3-3-3-3-2----3--3--------------------5-5-3-5------5--3--|
|-----------------------5--5----3--5-----------------------|-|
|----------------------------------------------------------|
|
                                                      
      |X2
|----------------------------------------------------------| |
|----------------------------------------------------------|-|
|----------------------------------------------------------|
|--3-3-3-3-2----3--3--------------------3------------------|
|-----------------------5--5----------3--------------------|
|-------------------------------5-3-5--------5-3----1--1---|


|----------------------------------------------------|
|----------------------------------------------------|
|----------------------------------------------------|
|--3----3--------------------3----3------------------|
|---------5-3-0-3----3--3-----------5-3-0-1----------|-|
|----------------------------------------------3--3--|
|
                                                      
|X2
|----------------------------------------------------| |
|----------------------------------------------------|-|
|----------------------------------------------------|
|--3----3----------------------------3---------------|
|---------5-3-0-3----3--3----------3-----------------|
|----------------------------5-3-5-------5-3----1--1-|


|----------------------------------------------------------|
|----------------------------------------------------------|
|-----------------------------------------------2----------|
|--3-3-3-3-2----3--3--------------------5-5-3-5------5--3--|
|-----------------------5--5----3--5-----------------------|-|
|----------------------------------------------------------|
|
                                                      
      |X2
|----------------------------------------------------------| |
|----------------------------------------------------------|-|
|----------------------------------------------------------|
|--3-3-3-3-2----3--3--------------------3------------------|
|-----------------------5--5----------3--------------------|
|-------------------------------5-3-5--------5-3----1--1---|


|----------------------------------------------------|
|----------------------------------------------------|
|----------------------------------------------------|
|--3----3--------------------3----3------------------|
|---------5-3-0-3----3--3-----------5-3-0-1----------|-|
|----------------------------------------------3--3--|
|
                                                      
|X2
|----------------------------------------------------| |
|----------------------------------------------------|-|
|----------------------------------------------------|
|--3----3----------------------------3---------------|
|---------5-3-0-3----3--3----------3-----------------|
|----------------------------5-3-5-------5-3----1--1-|

=====
     
Добавлено: 19.11.2013
Вам также может быть интересно:
Другие материалы по этой песне:
  • Аккорды и текст

Страница создана 19.11.2013
http://primanota.ru/cruachan/victory-reel-chords.htm
Привет, Гость.
Предлагаем пройти революционный курс по гитаре.
Подарок от PrimaNota.Ru, забирай!