PrimaNota.ru - самый крупный в мире бесплатный архив песенных текстов, аккордов, табулатур и нот


Cruachan - Susie Moran - текст песни, таба, видео

Регистрация Запомнить меня
Войти через:  Facebook Google Twitter Vk Yandex Mail.ru

Cruachan - Susie Moran - текст песни, таба, видео

Печатать
Просмотров: 251
TITLE: Susie Moran
BAND: Cruachan
ALBUM: Folk-lore
MUSICIANS: John O'Fathaigh,Joe Farrell,John
Clohessy,Keith Fay,Karen Gilligan
TRANSCRIBED BY: Guillermo Gerling (lgerling@yahoo.com)


 ^ - hammer on, pull off                   
 b - bend string up                        
 r - release bend 			   
 / - slide up     			   
 \ - slide down                            
 ~ - vibrato 
 T - tap            
 x - struck string                         
 . - play the note and then mute it    
   - raising volume   
PM - palm mute                            
AH - Artificial Harmonic  
NH - Natural Harmonic
\  / - Tremolo Bar
 \/

E-tunning (EADGBe)


INTRO:
-Bass:
G|------------------------------------------------------------------|
D|------15--15------15--15------15------15--15------15--15------15--|
A|--13----------13----------13------13----------13----------13------|
E|------------------------------------------------------------------|

G|------------------------------------------------------------------|
D|------13--13------13--13------13------12--12------12--12------12--|
A|--11----------11----------11------10----------10----------10------|
E|------------------------------------------------------------------|

-Acoustic guitar
   Cm
|--------------------------------------------------|
|--------4-----------4-----------4-----------4-----|
|-----------5-----------5-----------5-----------5--|
|-----5-----------5-----------5-----------5--------|
|--3-----------3-----------3-----------3-----------|-|
|--------------------------------------------------| |
   B                     Gm                          |
|--------------------------------------------------| |
|--------3-----------3-----------3-----------3-----| |
|-----------3-----------3-----------3-----------3--|-|
|-----3-----------3-----------5-----------5--------| |
|--1-----------1-----------------------------------| |
|--------------------------3-----------3-----------|
|FIG1
                                                    
|X1
|--------------------------------------------------| |
|--------4-----------4-----------4-----------4-----| |
|-----------5-----------5-----------5-----------5--|-|
|-----5-----------5-----------5-----------5--------| |
|--3-----------3-----------3-----------3-----------| |
|--------------------------------------------------| |
                                                     |
|--------------------------------------------------| |
|--------3-----------3-----------------------------|-|
|-----------3-----------3--------------------------|
|-----3-----------3--------------------------------|
|--1-----------1-----------------------------------|
|--------------------------------------------------|





VERSE1:
|-------------------------------------------------|
|-----------4-------------------------------------|
|--------5----------------------------3-----------|
|-----5--------0----1--0--------3--------3-----3--|
|--3----------------------1--1-----1--------1-----|-|
|-------------------------------------------------| |
                                                   
|FIG2
|-------------------------------------------------| |X8
|------------------------------------3------------|-|
|--------0---------------------5--------5-----5---|
|-----0---------------------5-----5--------5------|
|-------------/5----6^5--3------------------------|
|--3----------------------------------------------|





CHORUS:
-FIG1 X1




VERSE2:
-FIG2 X4





CHORUS:
-FIG1 X1




SOLO: with FIG2 X8
|GUITAR1:
|----------------------------------------------|
|----------------------------------------------|
|--/5------7--8^7--3------0----/8--7----5------|
|----------------------------------------------|X2
|----------------------------------------------|
|----------------------------------------------|


|GUITAR1:
|----------------------------------------------|
|----------------------------------------------|
|--/5------7--8^7--3------0----/8--7----5------|
|----------------------------------------------|
|----------------------------------------------|-|
|----------------------------------------------| |
                                                 |
|GUITAR2:                                        |X2
|----------------------------------------------| |
|--/4------6--8^6--3-----------/8--6----4------|-|
|-------------------------3--------------------|
|----------------------------------------------|
|----------------------------------------------|
|----------------------------------------------|


|GUITAR1:
|----------------------------------------------|
|----------------------------------------------|
|--/5------7--8^7--3------0----/8--7----5------|
|----------------------------------------------|X2
|----------------------------------------------|
|----------------------------------------------|


|GUITAR1:
|----------------------------------------------|
|----------------------------------------------|
|--/5------7--8^7--3------0----/8--7----5------|
|----------------------------------------------|
|----------------------------------------------|-|
|----------------------------------------------| |
                                                 |
|GUITAR2:                                        |X2
|----------------------------------------------| |
|--/4------6--8^6--3-----------/8--6----4------|-|
|-------------------------3--------------------|
|----------------------------------------------|
|----------------------------------------------|
|----------------------------------------------|


END:
-Guitar
|-------------------------|
|--------------3----------|
|--------5----------------|
|-----5-----5-------------|
|--3----------------------|
|-------------------------|

-Bass
|------------------------------------------------------------------|
|------15--15------15--15------15------15--15------15--15------15--|
|--13----------13----------13------13----------13----------13------|
|------------------------------------------------------------------|

|------------------------------------------------------------------|
|------13--13------13--13------13------12--12------12--12------12--|
|--11----------11----------11------10----------10----------10------|
|------------------------------------------------------------------|

|------------------------------------------------------------------|
|------15--15------15--15------15------15--15------15--15------15--|
|--13----------13----------13------13----------13----------13------|
|------------------------------------------------------------------|

|------------------------------------------------------------------|
|------13--13------13--13------13----------------------------------|
|--11----------11----------11------10----------------------3-------|
|------------------------------------------------------------------|


     
Добавлено: 21.08.2013
Другие материалы по этой песне:
  • Аккорды и текст

Страница создана 07.05.2012
http://primanota.ru/cruachan/susie-moran-chords.htm
Привет, Гость.
Предлагаем пройти революционный курс по гитаре.
Подарок от PrimaNota.Ru, забирай!