PrimaNota.ru - самый крупный в мире бесплатный архив песенных текстов, аккордов, табулатур и нот


Cruachan - Death Of Gael - таба, видео

Регистрация Запомнить меня
Войти через:  Facebook Google Twitter Vk Yandex Mail.ru

Cruachan - Death Of Gael - таба, видео

Печатать
Просмотров: 158
TITLE: Death of a Gael 
BAND: Cruachan
ALBUM: Folk-lore
MUSICIANS: John O'Fathaigh,Joe Farrell,John
Clohessy,Keith Fay,Karen Gilligan
TRANSCRIBED BY: Guillermo Gerling (lgerling@yahoo.com)


 ^ - hammer on, pull off                   
 b - bend string up                        
 r - release bend 			   
 / - slide up     			   
 \ - slide down                            
 ~ - vibrato 
 T - tap            
 x - struck string                         
 . - play the note and then mute it    
   - raising volume   
PM - palm mute                            
AH - Artificial Harmonic  
NH - Natural Harmonic
\  / - Tremolo Bar
 \/


E-tunning: (EADGBe)

INTRO:
-Flute alone
-Then enters distor guitar:
e|---------------------------------------------------------------------|
B|---------------------------------------------------------------------|
G|---------------------------------------------------------------------|
D|-2----------2-----2----------2-----5----------5-----2----------2-----|--|
A|-0----0--0--0--0--0----0--0--0--0--3----3--3--3--3--0----0--0--0--0--|
 |
E|---------------------------------------------------------------------|
 |FIG1
        PM..     .       ....     .       ....     .  ....     .     |X2
|-------------------------------------------------------|--------------| |
|-------------------------------------------------------|--------------|--|
|-------------------------------------------------------|--------------|
|-----------------------------------5----------5-----2--|-------2------|
|-5----------5-----2----------2-----3----3--3--3--3--0--|-0--0--0------|
|-3----3--3--3--3--0----0--0--0--0-------------------(--|----------3---|
       PM..     .       ....     .       ....     .  ) ....     (
                                                    
FIG1 ends here after
                                                    
played for second time


VERSE1:
-Am - Am - C - Am - G - Em - C - Am   X2
-Just before chorus:
|---------|
|---------|
|---------|
|-----(2)-|
|-----(0)-|
|--3------|




CHORUS:
-FIG1 X2



VERSE2:
-Am - Am - C - Am - G - Em - C - Am   X2
-Just before chorus:
|---------|
|---------|
|---------|
|-----(2)-|
|-----(0)-|
|--3------|




CHORUS:
-FIG1 X1
-then:
|---------------------------------------------------------------------|
|---------------------------------------------------------------------|
|---------------------------------------------------------------------|
|-2----------2-----2----------2-----5----------5-----2----------2-----|
|-0----0--0--0--0--0----0--0--0--0--3----3--3--3--3--0----0--0--0--0--|
|---------------------------------------------------------------------|
       PM..     .       ....     .       ....     .   ....     .
|----------------------------------------------------------------------|
|----------------------------------------------------------------------|
|----------------------------------------------------------------------|
|-----------------------------------5----------------2-----------------|
|-5-----------5----2----------------3----------------0-----------------|
|-3-----------3----0---------------------------------------------------|
    



BRIDGE:
-Em - D - G - Am  X8
-Then:
|--------------------------------------------------|
|--------------------------------------------------|
|--------------------------------------------------|
|--------------------------------------------------|-|
|--2--------2--------2-----2--------2--------2-----| |
|--0--0--0--0--0--0--0--0--0--0--0--0--0--0--0--0--| |
      PM..     ....     .     ....     ....     .    |
|--------------------------------------------------| |
|--------------------------------------------------| |
|--------------------------------------------------|-|
|--7--------7--------7-----7--------7--------7-----| |
|--5--5--5--5--5--5--5--5--5--5--5--5--5--5--5--5--| |
|--------------------------------------------------| |
      PM..     ....     .     ....     ....     .   
|X2
|--------------------------------------------------| |
|--------------------------------------------------| |
|--------------------------------------------------|-|
|--------------------------------------------------| |
|--5--------5--------5-----5--------5--------5-----| |
|--3--3--3--3--3--3--3--3--3--3--3--3--3--3--3--3--| |
      PM..     ....     .     ....     ....     .    |
|--------------------------------------------------| |
|--------------------------------------------------|-|
|--------------------------------------------------|
|--------------------------------------------------|
|--7--------7--------7-----7--------7--------7-----|
|--5--5--5--5--5--5--5--5--5--5--5--5--5--5--5--5--|
      PM..     ....     .     ....     ....     .

|------------------------------------------------------|
|------------------------------------------------------|
|------------------------------------------------------|
|------------------------------------------------------|
|----------2------------2------------2------------2----|
|--0-0-0-0-0----0-0-0-0-0----0-0-0-0-0----0-0-0-0-0----|
   PM.....      .......      .......      .......
|------------------------------------------------------|
|------------------------------------------------------|
|------------------------------------------------------|
|----------7------------7------------7------------7----|
|--5-5-5-5-5----5-5-5-5-5----5-5-5-5-5----5-5-5-5-5----|
|------------------------------------------------------|
   PM.....      .......      .......      .......
|------------------------------------------------------|
|------------------------------------------------------|
|------------------------------------------------------|
|------------------------------------------------------|
|----------5------------5------------5------------5----|
|--3-3-3-3-3----3-3-3-3-3----3-3-3-3-3----3-3-3-3-3----|
   PM.....      .......      .......      .......
|------------------------------------------------------|
|------------------------------------------------------|
|------------------------------------------------------|
|----------2------------2------------2------------2----|
|--0-0-0-0-0----0-0-0-0-0----0-0-0-0-0----0-0-0-0-0----|
|------------------------------------------------------|
   PM.....      .......      .......      .......
|------------------------------------------------------|
|------------------------------------------------------|
|------------------------------------------------------|
|------------------------------------------------------|
|----------2------------2------------2------------2----|
|--0-0-0-0-0----0-0-0-0-0----0-0-0-0-0----0-0-0-0-0----|
   PM.....      .......      .......      .......
|------------------------------------------------------|
|------------------------------------------------------|
|------------------------------------------------------|
|----------7------------7------------7------------7----|
|--5-5-5-5-5----5-5-5-5-5----5-5-5-5-5----5-5-5-5-5----|
|------------------------------------------------------|
   PM.....      .......      .......      .......
|------------------------------------------------------|
|------------------------------------------------------|
|------------------------------------------------------|
|------------------------------------------------------|
|----------5------------5------------5------------5----|
|--3-3-3-3-3----3-3-3-3-3----3-3-3-3-3----3-3-3-3-3----|
   PM.....      .......      .......      .......
|------------------------------------------------------|
|------------------------------------------------------|
|------------------------------------------------------|
|--2---------------------------------------------------|
|--0---------------------------------------------------|
|------------------------------------------------------|





VERSE3:
   Am       Am      C      Am       G        Em      C        Am
|-----------------------------------------------------------------------|
|-----------------------------------------------------------------------|
|-----------------------------------------------------------------------|X2
|--2--------------------------------------------------5--------2--------|
|--0--------------------------------5--------2--------3--------0--------|
|-----------------------------------3--------0--------------------------|
-Just before chorus:
|---------|
|---------|
|---------|
|-----(2)-|
|-----(0)-|
|--3------|




FINAL CHORUS:
-FIG1 X2



END:
|------------------------------------------------------|
|------------------------------------------------------|
|------------------------------------------------------|
|------------------------------------------------------|
|--------0^3----------------2-3----3-3-2--0----0-0-2^0-|
|--3--5-------3--5----5-5-3----------------------------|

|------------------------------------------------|
|------------------------------------------------|
|------------------------------------------------|
|------------------------------------------------|
|-----------------------0-2-3----3-3-2--0----0-0-|
|--3----3-3-2--0----0-0--------------------------|

|------------------------------------------------------|
|------------------------------------------------------|
|------------------------------------------------------|
|------------------------------------------------------|
|--------0^3----------------2-3----3-3-2--0----0-0-2^0-|
|--3--5-------3--5----5-5-3----------------------------|

|------------------------------------------------|
|------------------------------------------------|
|------------------------------------------------|
|------------------------------------------------|
|-----------------------0-2-3--------2--0~-------|
|--3--------2--0---------------------------------|

=====
     
Добавлено: 15.10.2013
Другие материалы по этой песне:
  • Аккорды и текст

Страница создана 15.10.2013
http://primanota.ru/cruachan/death-of-gael-chords.htm
Привет, Гость.
Предлагаем пройти революционный курс по гитаре.
Подарок от PrimaNota.Ru, забирай!