PrimaNota.ru - самый крупный в мире бесплатный архив песенных текстов, аккордов, табулатур и нот


Crowbar - On Frozen Ground - текст песни, таба, видео

Регистрация Запомнить меня
Войти через:  Facebook Google Twitter Vk Yandex Mail.ru

Crowbar - On Frozen Ground - текст песни, таба, видео

Печатать
Просмотров: 204
Уроки эстрадного вокала в Санкт-Петербурге
Band:  CROWBAR
Album: Odd Fellows Rest
Song:  On Frozen Ground

Transcribed by: general maxx

Tuning: 2.5 steps down

Keys:
 / \ - slide
  p  - pull off
  h  - hammer on
 ___ - palm mute
  b  - bend


INTRO:

(Gtr 1)
|--------------------------------------------------------------|
|--------------------------------------------------------------|
|--------------------------------------------------------------|
|-8\6-8/9-8\7-6/7-6\5------------------------------------------|
|-8\6-8/9-8\7-6/7-6\5------------------------------------------|
|-6\4-6/7-6\5-4/5-4\3----------6p4-6h7-6p5-4h5-4\3-0-0-0-0-0-0-|
                                                   ___________

(Gtr 2)
|--------------------------------------------------------------|
|--------------------------------------------------------------|
|--------------------------------------------------------------|
|-2-------------------2--2--2----------------------------------|
|-2-------------------2--2--2----------------------------------|
|-0-------------------0--0--0--6p4-6h7-6p5-4h5-4\3-0-0-0-0-0-0-|
                                                   ___________


VERSE:

|---------------------------------|
|---------------------------------|
|---------------------------------|
|-8\6-8/9-8\7-6/7-6\5-------------|
|-8\6-8/9-8\7-6/7-6\5-------------|
|-6\4-6/7-6\5-4/5-4\3-0-0-0-0-0-0-| 6x
                      ___________


CHORUS:

|--------------------------------------|
|--------------------------------------|
|--------------------------------------|
|-7----5--10--6----------------------2-|
|-5----5---8--4----------------------2-|
|-5----3---8--4--5--4~--0-1-3-4-3-1~-0-|


VERSE - 4x


CHORUS:

|------------------------------------|
|------------------------------------|
|------------------------------------|
|-7----5--10--6----------------------|
|-5----5---8--4----------------------|
|-5----3---8--4--5--4~--0-1-3-4-3-1/-| 2x


INTERLUDE:

|------------------------------------------------------------|
|------------------------------------------------------------|
|------------------------------------------------------------|
|---9----9/10---9----9/12---9--------------------------------|
|---7----7/-8---7----7/10---7---8/10---8----8/9---7----6-5-4-|
|-0----0------0----0------0---0-6/-8-0-6--0-6/7-0-5--0-4-3-2-| 2x
  _    _      _    _      _   _      _    _     _    _

|------------------------------------------------------------|
|------------------------------------------------------------|
|------------------------------------------------------------|
|---9----9/10---9----9/12---9---8/10---8----8/9---7----6-5-4-|
|---7----7/-8---7----7/10---7---8/10---8----8/9---7----6-5-4-|
|-0-7--0-7/-8-0-7--0-7/10-0-7-0-6/-8-0-6--0-6/7-0-5--0-4-3-2-|
  _    _      _    _      _   _      _    _     _    _

|---------------------------------------------------------------|
|---------------------------------------------------------------|
|---------------------------------------------------------------|
|---9----9/10---9----9/12---9---8/10---8----8/9---7----6-5-4--2-|
|---7----7/-8---7----7/10---7---8/10---8----8/9---7----6-5-4--2-|
|-0-7--0-7/-8-0-7--0-7/10-0-7-0-6/-8-0-6--0-6/7-0-5--0-4-3-2--0-|
  _    _      _    _      _   _      _    _     _    _


VERSE - 4x


CHORUS:

|------------------------------------
|------------------------------------
|------------------------------------
|-7----5--10--6----------------------
|-5----5---8--4----------------------
|-5----3---8--4--5--4~--0-1-3-4-3-1/-

 ---------------------------------------------------|
 ---------------------------------------------------|
 ---------------------------------------------------|
 -7----5-5-5-3-3-3-6-------------------3------------|
 -5----5-5-5-3-3-3-4-------------------3------------|
 -5----3-3-3-1-1-1-4--5--4~--0-1-3-4-3-1------------|
       ___________


OUTRO: (fades out)

(Gtr 1)
|------------------------------------------------------|
|------------------------------------------------------|
|------------------------------------------------------|
|-2-------------------/7~---7h8-9b--7h8-7~-5--3--5--3~-|
|-2----/7~---------------------------------------------|
|-0----------------------------------------------------|

(Gtr 2)
|------------------------------------------------------|
|------------------------------------------------------|
|------------------------------------------------------|
|-2----------------------------------------------------|
|-2----/7~------------/8~---8h9-10b-8h9-8~-5--3--------|
|-0---------------/\-----------------------------3--1~-|
Добавлено: 21.03.2012
Другие материалы по этой песне:

Страница создана 21.03.2012
http://primanota.ru/crowbar/on-frozen-ground-chords.htm
Привет, Гость.
Предлагаем пройти революционный курс по гитаре.
Подарок от PrimaNota.Ru, забирай!