PrimaNota.ru - самый крупный в мире бесплатный архив песенных текстов, аккордов, табулатур и нот


Coldworld - Refuse To Lose - таба, видео

Регистрация Запомнить меня
Войти через:  Facebook Google Twitter Vk Yandex Mail.ru

Coldworld - Refuse To Lose - таба, видео

Печатать
Просмотров: 192
Уроки эстрадного вокала в Санкт-Петербурге
e|--------------|
B|--------------|
G|--------------|
D|-0------------|
A|-0-(Ring out)-|
D|-0------------|

e|-------------|
B|-------------|
G|-------------|
D|-------------|
A|-1--0-1--0-1-|
D|-1--0-1--0-1-|
     PM   PM

e|--------------------------------------------------------------|
B|--------------------------------------------------------------|
G|--------------------------------------------------------------|
D|--------------------------------------------------------------| x2
A|-1p0-0-0-0-0-0-0-3h4-4-4-4-4-4-4-1p0-0-0-0-0-0-0-3/4-4-4-1--1-|
D|-1p0-0-0-0-0-0-0-3h4-4-4-4-4-4-4-1p0-0-0-0-0-0-0-3/4-4-4-1--1-|
       P M P M P M     P M P M P M     P M P M P M     

e|--------------------------------------------------------------|
B|--------------------------------------------------------------|
G|--------------------------------------------------------------|
D|--------------------------------------------------------------| x2
A|-1p0-0-0-0-0-0-0-3h4-4-4-4-4-4-4-1p0-0-0-0-0-0-0-3/4-4-4-1--1-|
D|-1p0-0-0-0-0-0-0-3h4-4-4-4-4-4-4-1p0-0-0-0-0-0-0-3/4-4-4-1--1-|

e|-------------------------------|
B|-------------------------------|
G|-------------------------------|
D|-------------------------------| 
A|-0----3---33-1--4-3-1-0-(ring)-|
D|-0----3---33-1--4-3-1-0--------|
            PM

e|--------------------------------------|
B|--------------------------------------|
G|--------------------------------------|
D|--------------------------------------| 
A|-0----3---33-1--4-3-1-0---1--0-1--0-1-|
D|-0----3---33-1--4-3-1-0---1--0-1--0-1-|
            PM                PM   PM

e|--------------------------------------------------------------|
B|--------------------------------------------------------------|
G|--------------------------------------------------------------|
D|--------------------------------------------------------------| x2
A|-1p0-0-0-0-0-0-0-3h4-4-4-4-4-4-4-1p0-0-0-0-0-0-0-3/4-4-4-1--1-|
D|-1p0-0-0-0-0-0-0-3h4-4-4-4-4-4-4-1p0-0-0-0-0-0-0-3/4-4-4-1--1-|
       P M P M P M     P M P M P M     P M P M P M     

e|--------------------------------------------------------------|
B|--------------------------------------------------------------|
G|--------------------------------------------------------------|
D|--------------------------------------------------------------| x2
A|-1p0-0-0-0-0-0-0-3h4-4-4-4-4-4-4-1p0-0-0-0-0-0-0-3/4-4-4-1--1-|
D|-1p0-0-0-0-0-0-0-3h4-4-4-4-4-4-4-1p0-0-0-0-0-0-0-3/4-4-4-1--1-|

e|---------------------------------------------------------------|
B|---------------------------------------------------------------|
G|---------------------------------------------------------------|
D|---------------------------------------------------------------| x2
A|-1p0-0-0-0-0-0-0-0-0-0-0-0-0-0-0-0-0-0-0-0-0-0-0-0h1-0-3p1-0h1-|
D|-1p0-0-0-0-0-0-0-0-0-0-0-0-0-0-0-0-0-0-0-0-0-0-0-0h1-0-3p1-0h1-|
       P M P M P M P M P M P M P M P M P M P M P M

e|---------------------------------------------------------------|
B|---------------------------------------------------------------|
G|---------------------------------------------------------------|
D|---------------------------------------------------------------| x2
A|-1p0-0-------------------------------------------0h1-0-3p1-0h1-|
D|-1p0-0-(let ring)--------------------------------0h1-0-3p1-0h1-|

e|--------------------------|
B|--------------------------|
G|--------------------------|
D|--------------------------| x6
A|--------------------------|
D|-1111-0----1111-0--1111-0-|
   PMPM PM   PMPM PM PMPM PM

e|--------|
B|--------|
G|--------|
D|--------| 
A|--------|
D|-1111-0-|
   PMPM PM  

Добавлено: 17.10.2015
Другие материалы по этой песне:
  • Аккорды и текст

Страница создана 17.10.2015
http://primanota.ru/coldworld/refuse-to-lose-chords.htm
Привет, Гость.
Предлагаем пройти революционный курс по гитаре.
Подарок от PrimaNota.Ru, забирай!