PrimaNota.ru - самый крупный в мире бесплатный архив песенных текстов, аккордов, табулатур и нот


Coldworld - Can It Be So Simple 05 - таба, видео

Регистрация Запомнить меня
Войти через:  Facebook Google Twitter Vk Yandex Mail.ru

Coldworld - Can It Be So Simple 05 - таба, видео

Печатать
Просмотров: 44
e|----------------------|
B|----------------------|
G|----------------------|
D|-0--------1----3--3-1-| x2
A|-0--------1----3--3-1-|
D|-0--------1----3--3-1-|

e|----------------------------------------------------------|
B|----------------------------------------------------------|
G|----------------------------------------------------------|
D|-0----------------------0-1-0-1-1-------------3-----3-1-1-| x2
A|-0--0-0-0-0-0-0-0-0-0-0-0-1-0-1-1-1-1-1-1-1-1-3-3-3-3-1-1-|
D|-0--0-0-0-0-0-0-0-0-0-0-0-1-0-1-1-1-1-1-1-1-1-3-3-3-3-1-1-|
      P M P M P M P M P M           P M P M P M

e|------------------------------------|
B|------------------------------------|
G|------------------------------------|
D|-0------------------1------1/3--1/3-| 1,3
A|-0--0-0-1p0--0------1--1-1-1/3--1/3-|
D|-0--0-0-1p0--0------1--1-1-1/3--1/3-|
      P M                P M

e|--------------------------------------|
B|--------------------------------------|
G|--------------------------------------|
D|-1p0------------------1------1/3--1/3-| 2,4
A|-1p0--0-0-1p0--0------1--1-1-1/3--1/3-|
D|-1p0--0-0-1p0--0------1--1-1-1/3--1/3-|
        P M                P M

e|--------------|
B|--------------|
G|--------------|
D|-0------------|
A|-0-(Ring out)-|
D|-0------------|

Добавлено: 17.10.2015
Другие материалы по этой песне:
  • Аккорды и текст

Страница создана 17.10.2015
http://primanota.ru/coldworld/can-it-be-so-simple-05-chords.htm
Привет, Гость.
Предлагаем пройти революционный курс по гитаре.
Подарок от PrimaNota.Ru, забирай!