PrimaNota.ru - самый крупный в мире бесплатный архив песенных текстов, аккордов, табулатур и нот


Coldworld - Copernicus - таба, видео

Регистрация Запомнить меня
Войти через:  Facebook Google Twitter Vk Yandex Mail.ru

Coldworld - Copernicus - таба, видео

Печатать
Просмотров: 109
Bass intro

e|-----|
B|-----|
G|-----|
D|-----|
A|-----|
D|-12\-|

e|-------------------------------------|
B|-------------------------------------|
G|-------------------------------------|
D|-------------------------------------| x8
A|-0-0-0-0-1p0--0-0-0-0-0-0-1p0--0-5h6-|
D|-0-0-0-0-1p0--0-0-0-0-0-0-1p0--0-5h6-|
   P M P M      P M P M P M

e|---------------------------------------|
B|---------------------------------------|
G|---------------------------------------|
D|---------------------------------------| x4
A|-0-00-0-0-1p0--0-0-0-00-0-0-1p0--0-5h6-|
D|-0-00-0-0-1p0--0-0-0-00-0-0-1p0--0-5h6-|
   PMPM P M      P M PMPM P M

e|-------------------|
B|-------------------|
G|-------------------|
D|-------------------|
A|-------------------|
D|-6-5-3-5-3-0-1-0-0-|

e|-----------------------------------|
B|-----------------------------------|
G|-----------------------------------|
D|-----------------------------------| x4
A|-0-0-0-0-0-0-0-0-0-0-0-0-0-0h1-0-3-|
D|-0-0-0-0-0-0-0-0-0-0-0-0-0-0h1-0-3-|
   P M P M P M P M P M P MPM    PM

e|--------------------------------------------------------------------|
B|--------------------------------------------------------------------|
G|--------------------------------------------------------------------|
D|--------------------------------------------------------------------|
A|-5-5-5-5-5-5-5-5-5-5-5-5-5-5-5-5-5-6-6-6-6-6p5--6-6-6-6-6-6---------|
D|-5-5-5-5-5-5-5-5-5-5-5-5-5-5-5-5-5-6-6-6-6-6p5--6-6-6-6-6-6-6-5-3-0-|
   P M P M P M P M P M P M P M P M P M P MPM      P M P M P M 

e|---------------------------------------------------------------------|
B|---------------------------------------------------------------------|
G|---------------------------------------------------------------------|
D|---------------------------------------------------------------------|
A|-5-5-5-5-5-5-5-5-5-5-5-5-5-5-5-5-5-6-6-6-6-6-6-6-6-6-6-6-6-6---------|
D|-5-5-5-5-5-5-5-5-5-5-5-5-5-5-5-5-5-6-6-6-6-6-6-6-6-6-6-6-6-6-6-5-3-0-|
   P M P M P M P M P M P M P M P M P M P M P M P M P M P M P M

e|--------------|
B|--------------|
G|--------------|
D|-0------------| x4
A|-0-(ring out)-|
D|-0------------|

e|---------------------------------|
B|---------------------------------|
G|---------------------------------|
D|-6-6-6-6-6-6-6-6-6-6-6-6-6-6-6-6-|
A|-6-6-6-6-6-6-6-6-6-6-6-6-6-6-6-6-|
D|-6-6-6-6-6-6-6-6-6-6-6-6-6-6-6-6-|

e|-----------------------------------------------------------------------|
B|-----------------------------------------------------------------------|
G|-----------------------------------------------------------------------|
D|-----------------------------------------------------------------------|
A|-0-1-3-0-3-1-0-(ring out)-----------0-1-3-0-3-1-0-(ring out)-----------|
D|-0-1-3-0-3-1-0------------0h1-0-1h3-0-1-3-0-3-1-0------------3h4-0-3h4-|

e|-----------------------------------------------------------------------|
B|-----------------------------------------------------------------------|
G|-----------------------------------------------------------------------|
D|-----------------------------------------------------------------------|
A|-0-1-3-0-3-1-0--0-0-0-0-0-----------0-1-3-0-3-1-0--0-0-0-0-0-----------|
D|-0-1-3-0-3-1-0--0-0-0-0-0-0h1-0-1h3-0-1-3-0-3-1-0--0-0-0-0-0-3h4-0-3h4-|
                  P M P M PM                         P M P MPM

Play this behind solo (Sorry I can't work it out, too much wah pedal)

e|-----------------------------------------------------------------------|
B|-----------------------------------------------------------------------|
G|-----------------------------------------------------------------------|
D|-----------------------------------------------------------------------|
A|-0-1-3-0-3-1-0-(ring out)-----------0-1-3-0-3-1-0--0-0-0-0-0-----------|
D|-0-1-3-0-3-1-0------------0h1-0-1h3-0-1-3-0-3-1-0--0-0-0-0-0-3h4-0-3h4-|
                                                     P M P MPM
Добавлено: 17.10.2015
Вам также может быть интересно:
Другие материалы по этой песне:
  • Аккорды и текст

Страница создана 17.10.2015
http://primanota.ru/coldworld/copernicus-chords.htm
Привет, Гость.
Предлагаем пройти революционный курс по гитаре.
Подарок от PrimaNota.Ru, забирай!