PrimaNota.ru - самый крупный в мире бесплатный архив песенных текстов, аккордов, табулатур и нот


Coldworld - Boom Bye Bye - таба, видео

Регистрация Запомнить меня
Войти через:  Facebook Google Twitter Vk Yandex Mail.ru

Coldworld - Boom Bye Bye - таба, видео

Печатать
Просмотров: 134
artist-cold world
album-dedicated to babies who came feet first
label-deathwish inc.
tuning-drop d
. - palm mute
p - pull off
h - hammer on
/ - slide down


-----------------------------------------------------------|
-----------------------------------------------------------|
-----------------------------------------------------------|
-7/----8-8-8-8-7----7-5-5-------x2-------------------------|
-5/-0--6-6-6-6-5-0--5-3-3-6--------------------------------|
----0------------0--------6--------------------------------|


-----------------------------------------------------------|
-----------------------------------------------------------|
-----------------------------------------------------------|
-----8-8-8-8-7/-----7-7-5----------------------------------|
-0---6-6-6-6-5/-0---5-3-3-6--------------------------------|
-0--------------0---------6--------------------------------|


-----------------------------------------------------------|
-----------------------------------------------------------|
-----------------------------------------------------------|
-----------------------------------------------------------|
-3--0-x20--4-4-4-1-3--0-x20--0-4-0-1-----------------------|
-3--0------4-4-4-1-3--0------0-4-0-1-----------------------|
    .                 .      .   .


-----------------------------------------------------------|
-----------------------------------------------------------|
-----------------------------------------------------------|
-----------------------------------------------------------|
-4-1-3-4-6-4-1-3---4-1-3-4-6-4-1--3-3----------------------|
-4-1-3-4-6-4-1-3---4-1-3-4-6-4-1--3-3----------------------|


-----------------------------------------------------------|
-----------------------------------------------------------|
-----------------------------------------------------------|
---3---3-5-1-1p0----3---3-3-0-7-5-5------------------------|
-5---5------------5---5-------------6----------------------|
-----------------------------------------------------------|


-----------------------------------------------------------|
-----------------------------------------------------------|
-----------------------------------------------------------|
-----------------------------------------------------------|
-0-3-0-3h5-1-0-0-0-0---0-3-0-3-3-0-7-5-5-1-----------------|
-0-3-0-3h5-1-0-0-0-0---0-3-0-3-3-0-7-5-5-1-----------------|
 .   .       .   .     .   .


-----------------------------------------------------------|
-----------------------------------------------------------|
-----------------------------------------------------------|
-----------------------------------------------------------|
-0-3-0-3h5-1-0-0-0-0---0-3-0-3-3--1-1-1-1------------------|
-0-3-0-3h5-1-0-0-0-0---0-3-0-3-3--1-1-1-1------------------|
 .   .       .   .     .   .       .   .

-----------------------------------------------------------|
-----------------------------------------------------------|
-----------------------------------------------------------|
-7-x16----------x4---7-------------------------------------|
-5-----7-x16---------5-------------------------------------|
-------7---------------------------------------------------|
 .     .
Добавлено: 20.05.2012
Другие материалы по этой песне:
  • Аккорды и текст

Страница создана 20.05.2012
http://primanota.ru/coldworld/boom-bye-bye-chords.htm
Привет, Гость.
Предлагаем пройти революционный курс по гитаре.
Подарок от PrimaNota.Ru, забирай!