PrimaNota.ru - самый крупный в мире бесплатный архив песенных текстов, аккордов, табулатур и нот


Clutch - X-ray Visions - таба, видео

Регистрация Запомнить меня
Войти через:  Facebook Google Twitter Vk Yandex Mail.ru

Clutch - X-ray Visions - таба, видео

Печатать
Просмотров: 158
Clutch
"X-Ray Visions"
From the album "Psychic Warfare" (2015)

Standard Tuning

182 BPM

INTRO                              VERSE
  Q.   Q.   Q    +E  Q  E E E E E     E E E E E E E E   E E E E E E E E
|--------------|------------------||------------------|------------------|
|--------------|------------------||o-----------------|------------------|
|--------------|------------------||------------------|------------------|
|--------------|--------7-7-7-7-7-||--7-9-------------|------------------|
|--------------|--------5-5-5-5-5-||o-5-7-------------|------------------|
|-3----0----3--|-(3)-0------------||------0-0-0-0-0-0-|-0-0-0-0-0-0-0-0--|

  E E E E E E E E   E E E E E E E E   E E E E E E E E   E E E E E E E E
|-----------------|-----------------|-----------------|-----------------|
|-----------------|-----------------|-----------------|-----------------|
|-----------------|-----------------|-----------------|-----------------|
|-----------------|-----------7-7-7-|-7-9-------------|-----------------|
|-----------------|-----------5-5-5-|-5-7-------------|-----------------|
|-0-0-0-0-0-0-0-0-|-0-0-0-0-0-------|-----0-0-0-0-0-0-|-0-0-0-0-0-0-0-0-|

                                    1.                    2. (before chorus)
  E E E E E E E E   E Q  E Q  E E   +E  E E E E E E E     E E E E E E E E
|-----------------|---------------|--------------------||-----------------|
|-----------------|---------------|-------------------o||-----------------|
|-----------------|---------------|--------------------||-----------------|
|-----------------|---------------|-------7-7-7-7-7-7--||-----------------|
|-----------------|---------------|-------5-5-5-5-5-5-o||-----8-8-8-8-8-8-|
|-0-0-0-0-0-0-0-0-|-0-3--0-3--0-3-|-(3)-0--------------||-3-0-------------|

CHORUS
  Q.   Q.   Q    E E E E Q.   E   E E H.        Q.   Q.   Q
|--------------|----------------|-------------|--------------|
|--------------|----------------|-------------|--------------|
|--------------|----------------|-------------|--------------|
|--------------|----------------|-------------|-7----7----7--|
|--------------|-7-7-7-5-7----4-|-5-4-5-------|-5----5----5--|
|-0----0----0--|----------------|-------------|--------------|

  Q.   Q.   Q    E E E E Q.   E   E E H    +E  E   E E E E E E Q
|--------------|----------------|----------------|----------------|
|--------------|----------------|----------------|----------------|
|--------------|----------------|----------------|----------------|
|--------------|----------------|----------------|---5------------|
|--------------|-7-7-7-5-7----4-|-5-4-5----(5)-5-|-7---7-5--------|
|-0----0----0--|----------------|----------------|---------7-5-3--|

SOLO
  E E E Q      Q  E       +E  Q  Q      E E E   E E E Q      Q  E       +E  Q  Q      E E E
|-----------------------|---------------------|-----------------------|---------------------|
|-----------------------|---------------------|-----------------------|---------------------|
|-0-0-0-3b3.5--0--5b5.5-|-(5)-0--3b3.5--0-0-0-|-0-0-0-3b3.5--0--5b5.5-|-(5)-0--3b3.5--0-0-0-|
|-----------------------|---------------------|-----------------------|---------------------|
|-----------------------|---------------------|-----------------------|---------------------|
|-----------------------|---------------------|-----------------------|---------------------|

   E  E  E  Q  Q   E    +E   E  E  E  Q  Q    E  E  E  Q  Q   E    +E   E  E  E  H
|--------------------|----------------------|--------------------|---------------------|
|--------------------|----------------------|-----------------11-|-(11)-11-11-11-11----|
|-10-10-10-12--0--10-|-(10)-10-10-10-12--0--|-10-10-10-12--0--10-|-(10)-10-10-10-10----|
|-10-10-10-12--0--10-|-(10)-10-10-10-12--0--|-10-10-10-12--0-----|---------------------|
|--------------------|----------------------|--------------------|---------------------|
|--------------------|----------------------|--------------------|---------------------|

 Interlude
  E E E E E E E E   E E E E E E E E   E E E E E E E E   E E E E E E E E
|-----------------|-----------------|-----------------|-----------------|
|-----------------|-----------------|-----------------|-----------------|
|-----------------|-----------------|-----------------|-----------------|
|-----5-----5-----|-5-----5-----5---|-----5-----5-----|-5-5-5-5-5-5-5-5-|
|-----------------|-----------------|-----------------|-5-5-5-5-5-5-5-5-|
|-3-3---3-3---3-3-|---3-3---3-3---3-|-3-3---3-3---3-3-|-3-3-3-3-3-3-3-3-|
Добавлено: 24.08.2015
Другие материалы по этой песне:

Страница создана 24.08.2015
http://primanota.ru/clutch/x-ray-visions-chords.htm
Привет, Гость.
Предлагаем пройти революционный курс по гитаре.
Подарок от PrimaNota.Ru, забирай!