PrimaNota.ru - самый крупный в мире бесплатный архив песенных текстов, аккордов, табулатур и нот


Clutch - Son Of Virginia - таба, бас-таба, видео

Регистрация Запомнить меня
Войти через:  Facebook Google Twitter Vk Yandex Mail.ru

Clutch - Son Of Virginia - таба, бас-таба, видео

Печатать
Просмотров: 99
Уроки эстрадного вокала в Санкт-Петербурге
CLUTCH
"Son of Virginia"
From the album "Psychic Warfare" (2015)

Tuning: D A D G B E
Tempo: 75 bpm
Light swing feel

 Intro (clean guitar)
e|---------------------|-----------------------|
B|---------------------|-----------------------|
G|---------------------|-----------------------|
D|---0-0---0-3b3.5-0---|---0-0---0-3b3.5-0---0-|
A|-------3-------------|-------3-----------3---|
D|-0-------------------|-0---------------------|


e|-------------|---------------|
B|-------------|---------------|
G|-5--5--5---5-|-4--4-4-4--4-5-|
D|-------------|---------------|
A|-3--3--3---3-|-2--2-2-2--2-3-|
D|-------------|---------------|


   Gtr II
e|-------5-----------------|-------------------------|-------5-------------------|-------------------------|
B|-----------6-----5---5-6-|-------------------------|-----------6-----5-6-8-6---|-------------------------|
G|-7-----------------7-----|---7---(7)---------------|-7-------------------------|-7-----------------------|
D|-------------------------|-7-----------------------|-------------------------7-|-------------------------|
A|-------------------------|-------------------------|---------------------------|-------------------------|
D|-------------------------|-------------------------|---------------------------|-------------------------|
 |
 | Gtr I
e|-------------------------|-------------------------|---------------------------|-------------------------|
B|-------------------------|-------------------------|---------------------------|-------------------------|
G|-------------------------|-------------------------|---------------------------|-------------------------|
D|---0-0---0-3b3.5---0-----|---0-0-----0-3b3.5-0---0-|---0-0---0-3b3.5---0-------|---0-0---0-3b3.5-0---0---|
A|-------3-----------------|--------3------------3---|-------3-------------------|-------3-----------3-----|
D|-0-----------------------|-0-----------------------|-0-------------------------|-0-----------------------|


 Verses
   Gtr II
e|---------------------|-----------------------|
B|-3-------------------|-3---------------------|
G|-2-------------------|-2---------------------|
D|-0-------------------|-0---------------------|
A|-0-------------------|-0---------------------|
D|-0-------------------|-0---------------------|
 |
 | Gtr I
e|---------------------|-----------------------|
B|---------------------|-----------------------|
G|---------------------|-----------------------|
D|---0-0---0-3b3.5-0---|---0-0---0-3b3.5-0---0-|
A|-------3-------------|-------3-----------3---|
D|-0-------------------|-0---------------------|


e|-------------|---------------|
B|-------------|---------------|
G|-5--5--5---5-|-4--4-4-4--4-5-|
D|-------------|---------------|
A|-3--3--3---3-|-2--2-2-2--2-3-|
D|-------------|---------------|


   Bridge (w/Distortion)
e|----------------|----------------|----------------|----------------|
B|----------------|----------------|----------------|----------------|
G|----------------|----------------|----------------|----------------|
D|----------------|----------------|----------------|----------------|
A|----5---3-3-3-5-|----5---3-3-3---|----5---3-3-3-5-|----5---3-2-----|
D|-0----0---------|-0----0-------3-|-0----0---------|-0----0-----3-2-|

 
   Gtr II
e|-----------------|-------------------|-------------------|----------------|
B|-----------------|-------------------|-------------------|----------------|
G|----9-7----------|-7--------7--9b11--|-9b11--7-----------|----------------|
D|-----------7-9-7-|----7-9-7----------|-------------------|----------------|
A|-----------------|-------------------|-------------------|----------------|
D|-----------------|-------------------|-------------------|----------------|
 |
 | Gtr I
e|-----------------|-------------------|-------------------|----------------|
B|-----------------|-------------------|-------------------|----------------|
G|-2--2---2--2-----|-4--4-----5--5-----|-------------------|----------------|
D|-2--2---2--2-----|-4--4-----5--5-----|-------------------|----------------|
A|-0--0---0--0-----|-2--2-----3--3-----|-------5---3-3-3-5-|----5---3-3-3---|
D|-----------------|-------------------|-0-------0---------|-0----0-------3-|

   Gtr II
e|----------------------------|----------------------|----------------|-----------------|
B|----------------------------|--------------10------|----------------|-----------------|
G|-10-9-7---9b10-7--------7---|-7-----7-7-7---9b10-9-|-7--------------|-----------------|
D|--------9-----------7-9---9-|---7-9----------------|----------------|-----------------|
A|----------------------------|----------------------|----------------|-----------------|
D|----------------------------|----------------------|----------------|-----------------|
 |
 | Gtr I
e|----------------------------|----------------------|----------------|-----------------|
B|----------------------------|----------------------|----------------|-----------------|
G|--2-------2------2--2-------|-4-----4---5---5------|----------------|-----------------|
D|--2-------2------2--2-------|-4-----4---5---5------|----------------|-----------------|
A|--0-------0------0--0-------|-2-----2---3---3------|----5---3-3-3-5-|----5---3-3-3----|
D|----------------------------|----------------------|-0----0---------|-0----0-------3--|

   Gtr II
e|-----------------|-------------------|--------------|------|
B|-----------------|-------------------|--------------|------|
G|----9-7----------|-7--------7--9b11--|-9b11--7------|------|
D|-----------7-9-7-|----7-9-7----------|--------------|------|
A|-----------------|-------------------|--------------|------|
D|-----------------|-------------------|--------------|------|
 |
 | Gtr I
e|-----------------|-------------------|--------------|------|
B|-----------------|-------------------|-3------------|------|
G|-2--2---2--2-----|-4--4-----5--5-----|-2------------|------|
D|-2--2---2--2-----|-4--4-----5--5-----|-0------------|------|
A|-0--0---0--0-----|-2--2-----3--3-----|-0------------|------|
D|-----------------|-------------------|-0------------|------|


Second Bridge
   Gtr II
e|-----------------|----------------------|-------------------|----------------|
B|-----------------|----------------------|-------------------|----------------|
G|----9-7----------|-7--------7--9b11-b11-|-9b11--7-----------|----------------|
D|-----------7-9-7-|----7-9-7-------------|-------------------|----------------|
A|-----------------|----------------------|-------------------|----------------|
D|-----------------|----------------------|-------------------|----------------|
 |
 | Gtr I
e|-----------------|----------------------|-------------------|----------------|
B|-----------------|----------------------|-------------------|----------------|
G|-2--2---2--2-----|-4--4-----5--5--------|-------------------|----------------|
D|-2--2---2--2-----|-4--4-----5--5--------|-------------------|----------------|
A|-0--0---0--0-----|-2--2-----3--3--------|-------5---3-3-3-5-|----5---3-3-3---|
D|-----------------|----------------------|-0-------0---------|-0----0-------3-|

   Gtr II
e|--------------------------------|--------------------------|----------------|-----------------|
B|--------------------------------|--------------------------|----------------|-----------------|
G|-10-9-7-10-9-7-10-9-7-------7---|-7-----7-7-----7---9b11-9-|-7--------------|-----------------|
D|------------------------7-9---9-|---7-9-----7-9------------|----------------|-----------------|
A|--------------------------------|--------------------------|----------------|-----------------|
D|--------------------------------|--------------------------|----------------|-----------------|
 |
 | Gtr I
e|-------------------------------|---------------------------|----------------|-----------------|
B|-------------------------------|---------------------------|----------------|-----------------|
G|--2-------2------2-----2-------|-4-----4-----5-----5-------|----------------|-----------------|
D|--2-------2------2-----2-------|-4-----4-----5-----5-------|----------------|-----------------|
A|--0-------0------0-----0-------|-2-----2-----3-----3-------|----5---3-3-3-5-|----5---3-3-3----|
D|-------------------------------|---------------------------|-0----0---------|-0----0-------3--|

   Gtr II
e|-------------------|----------------------|-------------------|----------------|
B|-------------------|-10-----------10------|-------------------|----------------|
G|--------6--6-7-9---|--9b-9-7-------9b-b9--|-9--7-7------------|----------------|
D|-7--7-9------------|----------7-----------|-------------------|----------------|
A|-------------------|----------------------|-------------------|----------------|
D|-------------------|----------------------|-------------------|----------------|
 |
 | Gtr I
e|-------------------|----------------------|-------------------|----------------|
B|-------------------|----------------------|-------------------|----------------|
G|-2---2---2---2-----|-4--4-----5--5--------|-------------------|----------------|
D|-2---2---2---2-----|-4--4-----5--5--------|-------------------|----------------|
A|-0---0---0---0-----|-2--2-----3--3--------|-------5---3-3-3-5-|----5---3-3-3---|
D|-------------------|----------------------|-0-------0---------|-0----0-------3-|

   Gtr II
e|------------------------------|--------------------------|----------------|-----------------|
B|------------------------------|--------------------------|----------------|-----------------|
G|-9b10-9-7-9b10-9-7-7--------7-|-9b10-9-7-7--------9b11-9-|-7--------------|-----------------|
D|------------------------7-9---|--------------------------|----------------|-----------------|
A|------------------------------|--------------------------|----------------|-----------------|
D|------------------------------|--------------------------|----------------|-----------------|
 |
 | Gtr I
e|------------------------------|---------------------------|----------------|-----------------|
B|------------------------------|---------------------------|----------------|-----------------|
G|--2------2------2-----2-------|-4-----4-----5-----5-------|----------------|-----------------|
D|--2------2------2-----2-------|-4-----4-----5-----5-------|----------------|-----------------|
A|--0------0------0-----0-------|-2-----2-----3-----3-------|----5---3-3-3-5-|----5---3-3-3----|
D|------------------------------|---------------------------|-0----0---------|-0----0-------3--|

 
e|----------------|-----------------|------|
B|----------------|-----------------|------|
G|----------------|-----------------|------|
D|----------------|-----------------|------|
A|----5---3-3-3-5-|----5---3-2------|------|
D|-0----0---------|-0----0-----3-2--|-0----|


Tablature Legend
----------------
 h   - hammer-on
 p   - pull-off
 b   - bend
 pb  - pre-bend
 r   - bend release (if no number after the r, then release immediately)
 /\  - slide into or out of (from/to "nowhere")
 s   - legato slide
 S   - shift slide
  - natural harmonic
[n]  - artificial harmonic
n(n) - tapped harmonic
 ~   - vibrato
 tr  - trill
 T   - tap
 TP  - trem. picking
 PM  - palm muting
\n/  - tremolo bar dip; n = amount to dip
 \n  - tremolo bar down
 n/  - tremolo bar up
/n\  - tremolo bar inverted dip
 =   - hold bend; also acts as connecting device for hammers/pulls
 <>  - volume swell (louder/softer)
 x   - on rhythm slash represents muted slash
 o   - on rhythm slash represents single note slash
Добавлено: 08.05.2016
Другие материалы по этой песне:
  • Аккорды и текст

Страница создана 22.04.2016
http://primanota.ru/clutch/son-of-virginia-chords.htm
Привет, Гость.
Предлагаем пройти революционный курс по гитаре.
Подарок от PrimaNota.Ru, забирай!