PrimaNota.ru - самый крупный в мире бесплатный архив песенных текстов, аккордов, табулатур и нот


Clutch - Gullah - текст песни, таба, бас-таба, видео

Регистрация Запомнить меня
Войти через:  Facebook Google Twitter Vk Yandex Mail.ru

Clutch - Gullah - текст песни, таба, бас-таба, видео

Печатать
Просмотров: 208
Авторы: Clutch

-------------------------------------------------------------------------------
                             Gullah - Clutch
-------------------------------------------------------------------------------

Tabbed by: Bobby
Email: drawmorezombies@yahoo.com

This is the first song I've ever tabbed, but It sounds right on too me. Enjoy.

Tuning: Standard

| /  slide up
|   slide down
| h  hammer-on
| p  pull-off
| ~  vibrato
| +  harmonic
| x  Mute note

12x
e|-------------------------|-----|
B|-------------------------|-----|
G|--------------7----------|-----|
D|--7-7x-7--5h7---7p5h7p5--|--7--| let ring
A|--7-7x-7-----------------|--7--|
E|--5-5x-7-----------------|--5--|

2x
e|--------------------------------8---------------------------------------------|-----|
B|----8-10---8-10---8-10p8h10p8-8---10p8---8-10---8-10---8-10p8h10p8h10p8h10p8--|-----|
G|--9------9------9----------------------9------9------9------------------------|-----|
D|------------------------------------------------------------------------------|--7--| 
ring
A|------------------------------------------------------------------------------|--7--|
E|------------------------------------------------------------------------------|--5--|

8x
e|-------------------------|
B|-------------------------|
G|--------------7----------|
D|--7-7x-7--5h7---7p5h7p5--|
A|--7-7x-7-----------------|
E|--5-5x-7-----------------|

2x
e|-------------------------------------------------------------------|
B|-------------------------------------------------------------------|
G|-------------------------------------------------------------------|
D|-------------------------------------------------------------------|
A|----------------------------3--------------------------------------|
E|--0-3-5-0-3-5-0-3-5p3h5p3-3---5p3-0-3-5-0-3-5-0-3-5p3h5p3h5p3h5p3--|


e|----------------------------------------------------------------------|
B|----------------------------------------------------------------------|
G|----------------------------------------------------------------------|
D|---------------------------7-7-----------------------------------7-7--|
A|--0-3-5-3-5p3-----0h3------7-7--0-3-5-3-------3-5p3-----0h3------7-7--|
E|--------------5p3-----5p3--5-5----------5-3-5-------5p3-----5p3--5-5--|

e|------------------------------------------------5-5--|
B|------------------------------------------------5-5--|
G|------------------------------------------------6-6--|
D|-------------------------------------------7-7--7-7--|
A|--0-3-5-3-5-3-------3---3-5p3-----0h3------7-7--7-7--|
E|--------------5-3-5---5-------5p3-----5p3--5-5--5-5--|

4x
e|---------------------------------------------------------------------------------------------------------|-----|
B|---------------------------------------------------------------------------------------------------------|-----|
G|--------12-12h14-11--------------------------------------------------------------------------------------|-----|

let ring
A|---------------------------------------------------------------------------------------------------------|--7--|
E|---------------------------------------------------------------------------------------------------------|--5--|

e|--------------------------------8---------------------------------------------|
B|----8-10---8-10---8-10p8h10p8-8---10p8---8-10---8-10---8-10p8h10p8h10p8h10p8--|
G|--9------9------9----------------------9------9------9------------------------|
D|------------------------------------------------------------------------------|
A|------------------------------------------------------------------------------|
E|------------------------------------------------------------------------------|

e|--------------------------------8-----------------------------|
B|----8-10---8-10---8-10p8h10p8-8---10p8---8-10---8-10---8-10b--|
G|--9------9------9----------------------9------9------9--------|
D|--------------------------------------------------------------|
A|--------------------------------------------------------------|
E|--------------------------------------------------------------|

2x
e|-------------------------------------------------------------------|
B|-------------------------------------------------------------------|
G|-------------------------------------------------------------------|
D|-------------------------------------------------------------------|
A|----------------------------3--------------------------------------|
E|--0-3-5-0-3-5-0-3-5p3h5p3-3---5p3-0-3-5-0-3-5-0-3-5p3h5p3h5p3h5p3--|

e|--------------------------------|
B|--------------------------------|
G|--------------------------------|
D|---------------------------7-7--|
A|--0-3-5-3-5p3-----0h3------7-7--|
E|--------------5p3-----5p3--5-5--|

2x
e|-------------------------------------------------------------------|
B|-------------------------------------------------------------------|
G|-------------------------------------------------------------------|
D|-------------------------------------------------------------------|
A|----------------------------3--------------------------------------|
E|--0-3-5-0-3-5-0-3-5p3h5p3-3---5p3-0-3-5-0-3-5-0-3-5p3h5p3h5p3h5p3--|

e|----------------------------------------------------------------------|
B|----------------------------------------------------------------------|
G|----------------------------------------------------------------------|
D|---------------------------7-7-----------------------------------7-7--|
A|--0-3-5-3-5p3-----0h3------7-7--0-3-5-3-------3-5p3-----0h3------7-7--|
E|--------------5p3-----5p3--5-5----------5-3-5-------5p3-----5p3--5-5--|

e|------------------------------------------------5-5--|
B|------------------------------------------------5-5--|
G|------------------------------------------------6-6--|
D|-------------------------------------------7-7--7-7--|
A|--0-3-5-3-5-3-------3---3-5p3-----0h3------7-7--7-7--|
E|--------------5-3-5---5-------5p3-----5p3--5-5--5-5--|
Добавлено: 10.07.2012
Другие материалы по этой песне:

Страница создана 31.05.2012
http://primanota.ru/clutch/gullah-chords.htm
Привет, Гость.
Предлагаем пройти революционный курс по гитаре.
Подарок от PrimaNota.Ru, забирай!