PrimaNota.ru - самый крупный в мире бесплатный архив песенных текстов, аккордов, табулатур и нот


Clutch - Immortal - текст песни, таба, бас-таба, видео

Регистрация Запомнить меня
Войти через:  Facebook Google Twitter Vk Yandex Mail.ru

Clutch - Immortal - текст песни, таба, бас-таба, видео

Печатать
Просмотров: 217
Авторы: Neil Fallon, Leslie West

Tabbed by Resin Glazed Donut

This should be fairly accurate.  Listen to the song to figure out the timing. 
This is the song that got me into Clutch in the first place and its a disgrace 
there are no tabs for it!  
If I ever figure out the outro I'll update.

ALSO NOTE the intro and verse can be played higher up on the neck on the D and A strings.
Comparatively this is how Tim Sult appears to play it live, just play down from the 
12th fret to the 10th, 9th, 8th, etc. while plucking an open D and A strings in between.  
It does sound a bit chunkier.


KEY

Sustain - ~
Vibrato - v
Slide up - /
Slide down - \
Bend - b


Tuning - Drop D


Intro

e|---------------------|
B|---------------------|
G|---------------------|
D|----7~--5~--4~--3~~--|   X2                                
A|----5~--3~--2~--1~~--|
D|------0---0---0------|

e|----------------------------------------------------|
B|----------------------------------------------------|
G|----------------------------------------------------|
D|----7~--5~--4---5~--7~--5~--4---5~--7~--5~--4---3~--|
A|----5~--3~--2---3~--5~--3~--2---3~--5~--3~--2---1~--|
D|------0---0---0-------0---0---0-------0---0---0-----|                                

e|----------------------------------------------------|
B|----------------------------------------------------|
G|----------------------------------------------------|
D|----------------------------------------------------|                      
A|----3-0-0-0-3-0-0-3~-0-5-0-3-0-0-0------------------|
D|----3-0-0-0-3-0-0-3~-0-5-0-3-0-0-0------------------|

e|----------------------------------------------------|
B|----------------------------------------------------|
G|----------------------------------------------------|
D|----------------------------------------------------|         X2              
A|----5-4~-5-4-2-4-2-0-0~--3-0-5-0-3-0-0--------------|
D|----5-4~-5-4-2-4-2-0-0~--3-0-5-0-3-0-0--------------|          

e|----------------------------------------------------|
B|----------------------------------------------------|
G|----------------------------------------------------|
D|----------------------------------------------------|                      
A|----888888888888888-3-0-0-0-3-0-0-3~-0-5-0-3-0-0-0--|
D|----888888888888888-3-0-0-0-3-0-0-3~-0-5-0-3-0-0-0--|

e|----------------------------------------------------|
B|----------------------------------------------------|
G|----------------------------------------------------|
D|-------------7-9-7-9-7-9-7-9------------------------|                      
A|----88888888-5-7-5-7-5-7-5-7------------------------|
D|----88888888----------------------------------------|

e|----------------------------------------------------|
B|----------------------------------------------------|
G|----------------------------------------------------|
D|----7~--5~--4---3~--7~--5~--4---3~--7~--5~--4---3\--|
A|----5~--3~--2---1~--5~--3~--2---1~--5~--3~--2---1\--|
D|------0---0---0-------0---0---0-------0---0---0-----|

e|----------------------------------------------------|
B|----------------------------------------------------|
G|----------------------------------------------------|
D|----------------------------------------------------|                      
A|----3-0-0-0-3-0-0-3~-0-5-0-3-5-3-0------------------|
D|----3-0-0-0-3-0-0-3~-0-5-0-3-5-3-0------------------|
                                                              X2
e|----------------------------------------------------|
B|----------------------------------------------------|
G|----------------------------------------------------|
D|----------------------------------------------------|                           
A|----3-0-0-0-3-0-0-0-5-4-2-4-2-0-3-5-----------------|
D|----3-0-0-0-3-0-0-0-5-4-2-4-2-0-3-5-----------------|

e|----------------------------------------------------|
B|----------------------------------------------------|
G|----------------------------------------------------|
D|----7~--5~--4---5~--7~--5~--4---5~--7~--5~--4---3~--|
A|----5~--3~--2---3~--5~--3~--2---3~--5~--3~--2---1~--|
D|------0---0---0-------0---0---0-------0---0---0-----|

e|----------------------------------------------------|
B|----------------------------------------------------|
G|----------------------------------------------------|
D|----------------------------------------------------|                      
A|----3-0-0-0-3-0-0-3~-0-5-0-3-0-0-0------------------|
D|----3-0-0-0-3-0-0-3~-0-5-0-3-0-0-0------------------|

e|----------------------------------------------------|
B|----------------------------------------------------|
G|----------------------------------------------------|
D|----------------------------------------------------|          X2             
A|----5-4~-5-4-2-4-2-0-0~--3-0-5-0-3-0-0--------------|
D|----5-4~-5-4-2-4-2-0-0~--3-0-5-0-3-0-0--------------|

Solo

e|----------------------------------------------------|
B|-----------------------------12-10-12-12-10v--------|
G|--------------10-12b13-12-10-12-10-12-12-10v--------|
D|----12v-10-12---------------------------------------|                               
A|----------------------------------------------------|
D|----------------------------------------------------|

e|----------------------------------------------------|
B|----------------------------------------------------|
G|----------------------12b13v-b13-b13----------------|
D|--10v-10-12-10-12v-10-------------------------------|                               
A|------------------------------------3-0-3-0-3-0-3-3~|
D|------------------------------------3-0-3-0-3-0-3-3~|


e|----------------------------------------------------|
B|----------------------------------------------------|
G|----------------------------------------------------|
D|----------------------------------------------------|                      
A|----3-0-0-0-3-0-0-3~-0-5-0-3-5-3-0------------------|
D|----3-0-0-0-3-0-0-3~-0-5-0-3-5-3-0------------------|
                                                              X2
e|----------------------------------------------------|
B|----------------------------------------------------|
G|----------------------------------------------------|
D|----------------------------------------------------|                      
A|----3-0-0-0-3-0-0-0-5-4-2-4-2-0-3-5-----------------|
D|----3-0-0-0-3-0-0-0-5-4-2-4-2-0-3-5-----------------|

e|----------------------------------------------------|
B|----------------------------------------------------|
G|----------------------------------------------------|
D|----7~--5~--4---3~--7~--5~--4---3~--7~--5~--4---3\--|
A|----5~--3~--2---1~--5~--3~--2---1~--5~--3~--2---1\--|
D|------0---0---0-------0---0---0-------0---0---0-----|

LYRICS

Who's the man who stole fire for the people?
Who causes trembling in the bones of evil?
Who carved a mountain into a cathedral?

I am immortal

Half-blind and spitting straight into the wind
Down, down trying to drag me down
It's all right, I go to dreaming, I said it's all right

I, liquefying
(Dog years, dog years, dog years, dog years)
The blood of lions
(Dog years, dog years, dog years, dog years)
I ain't dying
(Dog years)

I am immortal

Who rides the solar cycle with no hands Ma?
Who found the ark inside Texarkana?
Who asks the questions that have no answers?

Half-blind and spitting straight into the wind
Down, down trying to drag me down
Down, down

(Dog years, dog years, dog years)
(Dog years, dog years, dog years)

I am immortal
I am immortal
I am immortal

Blood of lions
(Dog years, dog years, dog years, dog years)
I, liquefying
(Dog years, dog years, dog years, dog years)
I ain't dying
(Dog years)

I am immortal
Добавлено: 03.06.2013
Другие материалы по этой песне:

Страница создана 18.04.2012
http://primanota.ru/clutch/immortal-chords.htm
Привет, Гость.
Предлагаем пройти революционный курс по гитаре.
Подарок от PrimaNota.Ru, забирай!