PrimaNota.ru - самый крупный в мире бесплатный архив песенных текстов, аккордов, табулатур и нот


Chon - Cant Wait - таба, бас-таба, видео

Регистрация Запомнить меня
Войти через:  Facebook Google Twitter Vk Yandex Mail.ru

Chon - Cant Wait - таба, бас-таба, видео

Печатать
Просмотров: 152
Уроки эстрадного вокала в Санкт-Петербурге
-------------------------------------------------------------------------------
                             Can't Wait - CHON
-------------------------------------------------------------------------------
Tabbed by: Hirt
Tuning: Standard

e|-19-19----17-------------|-22-19-19----17-------24-|
B|-------17----------19-20-|----------17-------------|
G|-------------19-17-------|----------------19-17----|   
D|-------------------------|-------------------------|
A|-------------------------|-------------------------|
E|-------------------------|-------------------------|

e|-19-19----17-------------|-22-19-19----17----------|
B|-------17----------19-20-|----------17-------------|
G|-------------19-17-------|----------------19-17\0--|   
D|-------------------------|-------------------------|
A|-------------------------|-------------------------|
E|-------------------------|-------------------------|

e|------------------------|-10--------------------12-|
B|-12-12---10-------------|----12-12---10------------|
G|-------9----------11-12-|----------9---------------|
D|------------12-10-------|---------------12-10------|
A|------------------------|--------------------------|
E|------------------------|--------------------------|

e|--------------------12-|---------------------------|
B|-12-12-----10----------|-12-12-----10--------------|
G|-------x-9-------------|-------x-9-------7/21------|
D|--------------12-10----|--------------12-----------|
A|-----------------------|---------------------------|
E|-----------------------|---------------------------|  

Play this twice

\ = slide down
/ = slide up
x = rest

Добавлено: 06.12.2015
Другие материалы по этой песне:

Страница создана 30.10.2015
http://primanota.ru/chon/cant-wait-chords.htm
Привет, Гость.
Предлагаем пройти революционный курс по гитаре.
Подарок от PrimaNota.Ru, забирай!