PrimaNota.ru - самый крупный в мире бесплатный архив песенных текстов, аккордов, табулатур и нот


Chon - But - таба, видео

Регистрация Запомнить меня
Войти через:  Facebook Google Twitter Vk Yandex Mail.ru

Chon - But - таба, видео

Печатать
Просмотров: 60
Уроки эстрадного вокала в Санкт-Петербурге
-------------------------------------------------------------------------------
                             BUT - Chon
-------------------------------------------------------------------------------
Tabbed by: DiekRG
E-mail: diekrg@gmail.com
I saw this in the requested tabs and I'm trying to tab it out on Guitar Pro already.
Meanwhile have the intro.

Tuning: Standard

e|-----------------0---------------0-----0--------------------------------------|
B|---------1---0h1---0h1-------0h3---0h3---0h3--------------3\------------------|
G|-----------0-----------0---2-----------------2-(2)--------0-------------------|
D|-2h3h5-------------------3----------------------------0-----------------=-----|
A|-------0----------------------------------------------------------------------|
E|------------------------------------------------------------------------------|

e|-----------------0---------------0-----0---------------------3-(3)\----------|
B|---------1---0h1---0h1-------0h3---0h3---0h3-------3---------3-(3)\----------|
G|-----------0-----------0---2-----------------2-(2)---4-----------------------|
D|-2h3h5-------------------3-----------------------------5----------------=----|
A|-------0-------------------------------------------------5-------------------|
E|-----------------------------------------------------------3-----------------| x3

I hope to do be able to tab the rest soon.

************************************

| /   slide up
| \   slide down
| h   hammer-on
| p   pull-off
| ~   vibrato
| +   harmonic
| x   Mute note
| b   Bend
| pb  Pre-bend
| br  Bend release
| pbr Pre-bend release
| brb Bend release bend

************************************
Добавлено: 23.04.2016
Другие материалы по этой песне:
  • Аккорды и текст

Страница создана 23.04.2016
http://primanota.ru/chon/but-chords.htm
Привет, Гость.
Предлагаем пройти революционный курс по гитаре.
Подарок от PrimaNota.Ru, забирай!