PrimaNota.ru - самый крупный в мире бесплатный архив песенных текстов, аккордов, табулатур и нот


Chon - Knot - таба, видео

Регистрация Запомнить меня
Войти через:  Facebook Google Twitter Vk Yandex Mail.ru

Chon - Knot - таба, видео

Печатать
Просмотров: 79
-------------------------------------------------------------------------------
                             Knot Intro - Chon
-------------------------------------------------------------------------------
Tabbed by: ADC/DT
E-mail: dyrathorvaldsson@gmail.com
Notes: This is just the intro riffs

Tuning: Standard eBGDAE

e|--------------14----9-------------------------------------11-16------------|
B|-----12----------12---14--------------------------------------------12-----|
G|--------11-13---------------13-11-11-16-16-13-13-11-13-16--------------11--|
D|---9--------------------------------------------------------------9--------|
A|-7-----------------------12-------------------------------------7----------|
E|---------------------------------------------------------------------------|

e|--------------12-11-9-----------------------------------------14----9------|
B|-9--------------------12-12-9-9-12--------------------12----9----12---14---|
G|---11--------------------------------9-11-13-9-11--------11----------------|
D|------14---------------------------9----------------9----------------------|
A|---------12-9-------------------------------------7------------------------|
E|---------------------------------------------------------------------------|

e|----------------------------------11-16------------------------12-11-9-----|
B|--------------------------------------------12----9--------------------12--|
G|----13-11-11-16-16-13-13-11-13-16--------------11---11---------------------|
D|------------------------------------------9------------14------------------|
A|-12-------------------------------------7-----------------12-9-------------|
E|---------------------------------------------------------------------------|

e|---------------------------------------------------------------------------|
B|-12-9-9-12-----------------------------------------------------------------|
G|-------------9-11-13-11-9--------------------------------------------------|
D|-----------9---------------------------------------------------------------|
A|---------------------------------------------------------------------------|
E|---------------------------------------------------------------------------|

Добавлено: 03.10.2014
Другие материалы по этой песне:

Страница создана 03.01.2014
http://primanota.ru/chon/knot-chords.htm
Привет, Гость.
Предлагаем пройти революционный курс по гитаре.
Подарок от PrimaNota.Ru, забирай!