PrimaNota.ru - самый крупный в мире бесплатный архив песенных текстов, аккордов, табулатур и нот


Chemical Brothers - Lost In The K-hole - бас-таба, видео

Регистрация Запомнить меня
Войти через:  Facebook Google Twitter Vk Yandex Mail.ru

Chemical Brothers - Lost In The K-hole - бас-таба, видео

Печатать
Просмотров: 172
Авторы музыки: Tom Rowlands, Ed Simons

-----------------------------------------------------------------------------
			 Lost in the K-Hole - Chemical Brothers
-----------------------------------------------------------------------------

Tabbed By : David K.
e-mail: thischarmingman13@gmail.com

Tuning: Standard
  (Pt.1)   (Pt.2)                                        (Pt.3)
G|------------------------------------.4-.6------.4-6-4---------4------------|
D|--------------.4-.6------.4-.6-----6----------6-----------------2-4--------|
A|-------------6----------6-------4----------4------------2-2-2--------------|
E|--4\------4----------4-----------------------------------------------------|

G|-------4-------------------------------4h6---------------------------------|
D|---------2-4---------------------------------------------------------------|
A|-2-2-2--------4-4-4--2-2-4--4-4-4--4-4-------------------------------------|
E|---------------------------------------------------------------------------|

Order:
Part 1
Part 2 (x4)
Break
Part 1
Part 2 (x4)
Part 3 (x2)
Part 1 (x3)
Part 2 (x2)
Part 3 (x2)
Part 1 (x4)

| /  slide up
| \  slide down
| h  hammer-on
| p  pull-off
| ~  vibrato
| +  harmonic
| .  Dead note
=============================================================================
Добавлено: 14.05.2012
Другие материалы по этой песне:
  • Аккорды и текст

Страница создана 14.05.2012
http://primanota.ru/chemical-brothers/lost-in-the-k-hole-chords.htm
Привет, Гость.
Предлагаем пройти революционный курс по гитаре.
Подарок от PrimaNota.Ru, забирай!