PrimaNota.ru - самый крупный в мире бесплатный архив песенных текстов, аккордов, табулатур и нот


Chemical Brothers - Out Of Control - текст песни, бас-таба, видео

Регистрация Запомнить меня
Войти через:  Facebook Google Twitter Vk Yandex Mail.ru

Chemical Brothers - Out Of Control - текст песни, бас-таба, видео

Печатать
Просмотров: 261
Авторы музыки: Tom Rowlands, Bernard Sumner, Ed Simons

Band: Chemical Brothers

Song: Out Of Control

Album: Surrender (1999)

tabbed by Damiano Fassari



Main Riff:

G|------------------------------|
D|------------------------------|
A|-------------------------6-8--|
E|-8-8-8-8-8-8-8-8-8-8-8-8------|


Bridge:

 |------------------------------|
 |------------8----10-----------|
 |---8-----8--------------------|
 |------------------------------|
Добавлено: 21.04.2012
Другие материалы по этой песне:
  • Аккорды и текст

Страница создана 07.03.2012
http://primanota.ru/chemical-brothers/out-of-control-chords.htm
Привет, Гость.
Предлагаем пройти революционный курс по гитаре.
Подарок от PrimaNota.Ru, забирай!