PrimaNota.ru - самый крупный в мире бесплатный архив песенных текстов, аккордов, табулатур и нот


Chemical Brothers - Go - таба, бас-таба, видео

Регистрация Запомнить меня
Войти через:  Facebook Google Twitter Vk Yandex Mail.ru

Chemical Brothers - Go - таба, бас-таба, видео

Печатать
Просмотров: 337
Авторы: Tom Rowlands, Kamaal Ibn John Fareed, Ed Simons

-------------------------------------------------------------------------------
                             Go - Chemical Brothers
-------------------------------------------------------------------------------
Tabbed by: Drewlikecrazy

Tuning: Standard (EADGBE)

First tab - just tabbed out the little keyboard licks that play during the song.

it goes ohhhh..... 

e|---10-12-13-12-10----------------------------------------------------------|
B|-----------------------13--10----------------------------------------------|
G|-------------------------------12--10--9-----------------------------------|
D|---------------------------------------------------------------------------|
A|---------------------------------------------------------------------------|
E|---------------------------------------------------------------------------|

no time to rest...

e|--10-12-13-12-10------10------10--12---------------------------------------|
B|------------------13------13-----------------------------------------------|
G|---------------------------------------------------------------------------|
D|---------------------------------------------------------------------------|
A|---------------------------------------------------------------------------|
E|---------------------------------------------------------------------------|

e|---10-12-13-12-10----------------------------------------------------------|
B|-----------------------13--10----------------------------------------------|
G|-------------------------------12--10--9-----------------------------------|
D|---------------------------------------------------------------------------|
A|---------------------------------------------------------------------------|
E|---------------------------------------------------------------------------|

we're only here to make you...

e|--10-12-13-12-10----------10------10--12-----------------------------------|
B|----------------------13------13-------------------------------------------|
G|---------------------------------------------------------------------------|
D|---------------------------------------------------------------------------|
A|---------------------------------------------------------------------------|
E|---------------------------------------------------------------------------|

e|--13-12--10------10------10--12--------------------------------------------|
B|-------------13------13----------------------------------------------------|
G|---------------------------------------------------------------------------|
D|---------------------------------------------------------------------------|
A|---------------------------------------------------------------------------|
E|---------------------------------------------------------------------------| 
Добавлено: 29.05.2016
Вам также может быть интересно:
Другие материалы по этой песне:
  • Аккорды и текст

Страница создана 10.12.2015
http://primanota.ru/chemical-brothers/go-chords.htm
Привет, Гость.
Предлагаем пройти революционный курс по гитаре.
Подарок от PrimaNota.Ru, забирай!