PrimaNota.ru - самый крупный в мире бесплатный архив песенных текстов, аккордов, табулатур и нот


Chemical Brothers - Midnight Madness - бас-таба, видео

Регистрация Запомнить меня
Войти через:  Facebook Google Twitter Vk Yandex Mail.ru

Chemical Brothers - Midnight Madness - бас-таба, видео

Печатать
Просмотров: 117
Уроки эстрадного вокала в Санкт-Петербурге
Авторы музыки: Tom Rowlands, Ed Simons

-------------------------------------------------------------------------------
			     MIDNIGHT MADNESS - The Chemical Brothers
-------------------------------------------------------------------------------

The first time it's played like this
[0:36]
G|-------------------|
D|-------------------|
A|-8-7-0--7-8-10-8---|
E|-------------------|

The rest it's played like this

G|-----------------------|
D|-----------------------|
A|-(7)-8-7-0--7-8-10-8---|
E|-----------------------|

That's most of the song

Then at [2:17]

G|---------------------------------------------------------------------------|
D|---------------------------------------------------------------------------|
A|-8-8-8-8-8-8-8-8-10-10-10-10-10-10-10-10-7-7-7-7-7-7-7-7-8-8-8-8-8-8-8-8---|x6
E|---------------------------------------------------------------------------|

Then this again, until the end

G|-----------------------|
D|-----------------------|
A|-(7)-8-7-0--7-8-10-8---|
E|-----------------------|


Добавлено: 07.05.2012
Другие материалы по этой песне:
  • Аккорды и текст

Страница создана 07.05.2012
http://primanota.ru/chemical-brothers/midnight-madness-chords.htm
Привет, Гость.
Предлагаем пройти революционный курс по гитаре.
Подарок от PrimaNota.Ru, забирай!