PrimaNota.ru - самый крупный в мире бесплатный архив песенных текстов, аккордов, табулатур и нот


Casualties - Lonely On The Streets - Jersey City - таба, видео

Регистрация Запомнить меня
Войти через:  Facebook Google Twitter Vk Yandex Mail.ru

Casualties - Lonely On The Streets - Jersey City - таба, видео

Печатать
Просмотров: 101
one of the slower and easier casualties songs enjoy!


INTRO:Pt.1

e---5-5-5-5-5-5-5-5--3-3-3-3-3-3-3-3--5-5-5-5-5-5-5-5--3-3-3-2-2-2-3-3---|
B---3-3-3-3-3-3-3-3--3-3-3-3-3-3-3-3--3-3-3-3-3-3-3-3--3-3-3-2-2-2-3-3---|
G------------------------------------------------------------------------|  X4
D------------------------------------------------------------------------|
A------------------------------------------------------------------------|
E------------------------------------------------------------------------|

INTRO: Pt.2

e--------------------------|
B--------------------------|
G--------------------------|  X4
D------------7-x-----------|
A---7-7-7777-5-x-5-5-------|
E---5-5-5555---x-3-3-------|

CHORUS

e------------------------------------------|
B------------------------------------------|
G------------------------------------------| X3
D---7-7777777777777------------------------|
A---5-5555555555555-7-777777-5-555555------|
E-------------------5-555555-3-333333------|

finish 3rd playthrough with

e------------------------------------------------------------------------|
B------------------------------------------------------------------------|
G------------------------------------------------------------------------|
D----------7--------7----------------------------------------------------|
A---7-7777-5-7-7777-5-7-7-7-9-11-9-7-------------------------------------|
E---5-5555---5-5555---5-5-5-7-9--7-5-------------------------------------|

e------------------------------------------|
B------------------------------------------|
G------------------------------------------| X3
D---7-7777777777777------------------------|
A---5-5555555555555-7-777777-5-555555------|
E-------------------5-555555-3-333333------|

e------------------------------------------------------------------------|
B------------------------------------------------------------------------|
G------------------------------------------------------------------------|
D----------7--------7----------------------------------------------------|
A---7-7777-5-7-7777-5-7-7-7-9-11-9-7-------------------------------------|
E---5-5555---5-5555---5-5-5-7-9--7-5-------------------------------------|

VERSE 1

e--------------------------|
B--------------------------|
G--------------------------|  X4
D------------7-x-----------|
A---7-7-7777-5-x-5-5-------|
E---5-5-5555---x-3-3-------|

Chorus

e------------------------------------------|
B------------------------------------------|
G------------------------------------------| X3
D---7-7777777777777------------------------|
A---5-5555555555555-7-777777-5-555555------|
E-------------------5-555555-3-333333------|

e------------------------------------------------------------------------|
B------------------------------------------------------------------------|
G------------------------------------------------------------------------|
D----------7--------7----------------------------------------------------|
A---7-7777-5-7-7777-5-7-7-7-9-11-9-7-------------------------------------|
E---5-5555---5-5555---5-5-5-7-9--7-5-------------------------------------|

e------------------------------------------|
B------------------------------------------|
G------------------------------------------| X3
D---7-7777777777777------------------------|
A---5-5555555555555-7-777777-5-555555------|
E-------------------5-555555-3-333333------|

e------------------------------------------------------------------------|
B------------------------------------------------------------------------|
G------------------------------------------------------------------------|
D----------7--------7----------------------------------------------------|
A---7-7777-5-7-7777-5-7-7-7-9-11-9-7-------------------------------------|
E---5-5555---5-5555---5-5-5-7-9--7-5-------------------------------------|

VERSE 2

e--------------------------------------------|
B--------------------------------------------|
G--------------------------------------------| X3
D--------------------7-777777----------------|
A---7-77777777777777-5-555555-5-555555-------|
E---5-55555555555555----------3-333333-------|

e-----------------------------------------------------|
B-----------------------------------------------------|
G-----------------------------------------------------|
D-----------------------------------------------------|
A---7-77777777777777777777777777777-------------------|
E---5-55555555555555555555555555555-------------------|

VERSE 2 Pt. 2

e------------------------------------------|
B------------------------------------------|
G------------------------------------------| X3
D---9-9999999999999------------------------|
A---7-7777777777777-9-999999-7-777777------|
E-------------------7-777777-5-555555------|

e------------------------------------------------------------------------|
B------------------------------------------------------------------------|
G------------------------------------------------------------------------|
D----------7--------7----------------------------------------------------|
A---9-9999-7-9-9999-7-9-9-9-11-13-11-9-----------------------------------|
E---7-7777---7-7777---7-7-7--9-11-9--7-----------------------------------|

e------------------------------------------|
B------------------------------------------|
G------------------------------------------| X3
D---9-9999999999999------------------------|
A---7-7777777777777-9-999999-7-777777------|
E-------------------7-777777-5-555555------|

e------------------------------------------------------------------------|
B------------------------------------------------------------------------|
G------------------------------------------------------------------------|
D----------7--------7----------------------------------------------------|
A---9-9999-7-9-9999-7-9-9-9-11-13-11-9-----------------------------------|
E---7-7777---7-7777---7-7-7--9-11-9--7-----------------------------------|

SOLO (or at least thats what im calling it)

e---5-555555-3-33-2-22-33---|
B---3-333333-3-33-2-22-33---|
G---------------------------|  X4
D---------------------------|
A---------------------------|
E---------------------------|

OUTRO

e--------------------------------------------|
B--------------------------------------------|
G--------------------------------------------| X2
D--------------------7-777777----------------|
A---7-77777777777777-5-555555-5-555555-------|
E---5-55555555555555----------3-333333-------|

end on

e------------|
B------------|
G------------|
D------------|
A---7--------|
E---5--------|


this is my first of hopefully many tabs thank you and rate 5*s!
Добавлено: 10.06.2013
Другие материалы по этой песне:
  • Аккорды и текст

Страница создана 10.06.2013
http://primanota.ru/casualties/lonely-on-the-streets-jersey-city-chords.htm
Привет, Гость.
Предлагаем пройти революционный курс по гитаре.
Подарок от PrimaNota.Ru, забирай!