PrimaNota.ru - самый крупный в мире бесплатный архив песенных текстов, аккордов, табулатур и нот


Casualties - Looking Through Bloodshot Eyes - таба, видео

Регистрация Запомнить меня
Войти через:  Facebook Google Twitter Vk Yandex Mail.ru

Casualties - Looking Through Bloodshot Eyes - таба, видео

Печатать
Просмотров: 117
Уроки эстрадного вокала в Санкт-Петербурге
Song: Looking Through Bloodshot Eyes
Band: The Casualties
Albm: We Are All We Have

Intro:
|  C#   E  C#   F#   B  C# B  
|-----------------------------|
|-----------------------------|
|--6----9--6----11---4--6--4--|
|--x----x--x----x----x--x--x--|
|--4----7--4----9----2--4--2--|
|-----------------------------|

Verse:
|  C#       F#       D        A   B
|--------------------------------------|
|--------------------------------------|
|--6-6-6-6-----------7-7-7-7------4-4--|
|--6-6-6-6--4-4-4-4--7-7-7-7--7-7-4-4--|
|--4-4-4-4--4-4-4-4--5-5-5-5--7-7-2-2--|
|-----------2-2-2-2-----------5-5------|

Chorus:
|  C#  A G#A  B        E        F#
|----------------------------------------|
|----------------------------------------|
|--6-6-----------------------------------|
|--6-6-7-6-7--9-9-9-9--2-2-2-2--4-4-4-4--|
|--4-4-7-6-7--9-9-9-9--2-2-2-2--4-4-4-4--|
|------5-4-5--7-7-7-7--0-0-0-0--2-2-2-2--|

Breakdown:
|  G#           A    F#       E
|--------------------------------------|
|--------------------------------------|
|--------------------------------------|
|--6-6-6-6--6-6-7-7--4-4-4-4--2-2-2-2--|
|--6-6-6-6--6-6-7-7--4-4-4-4--2-2-2-2--|
|--4-4-4-4--4-4-5-5--2-2-2-2--0-0-0-0--|

Ending:
|  E    D#   B    C#
|----------------------|
|----------------------|
|--9----8----4----6----|
|--9----8----4----6----|
|--7----6----2----4----|
|----------------------|

Thats it. Email me owen_b123@hotmail.com
Добавлено: 08.10.2013
Другие материалы по этой песне:
  • Аккорды и текст

Страница создана 08.10.2013
http://primanota.ru/casualties/looking-through-bloodshot-eyes-chords.htm
Привет, Гость.
Предлагаем пройти революционный курс по гитаре.
Подарок от PrimaNota.Ru, забирай!