PrimaNota.ru - самый крупный в мире бесплатный архив песенных текстов, аккордов, табулатур и нот


Casualties - Washed Up - таба, бас-таба, видео

Регистрация Запомнить меня
Войти через:  Facebook Google Twitter Vk Yandex Mail.ru

Casualties - Washed Up - таба, бас-таба, видео

Печатать
Просмотров: 111
Уроки эстрадного вокала в Санкт-Петербурге
Same as the bass. Intro might have to be half step down. Early years.

>Feedback<
e|-10h11p10h11p10h11p10h11p10-|
B|----------------------------|
G|----------------------------|
D|----------------------------|
A|----------------------------|
E|----------------------------|

Intro (slow)
e|-------------------------|
B|-------------------------|
G|-------------------------|
D|-------------------------|
A|-2-2-2-5-5-5-4-4-4-2-2-2-|
E|-0-0-0-3-3-3-2-2-2-0-0-0-|

Fast Intro (same as above)

Small solo
e|-12-14-15p14p12---------|
B|---------------15p14p12-|
G|------------------------|
D|------------------------|
A|------------------------|
E|------------------------|

Main riff
e|----------------------------|
B|----------------------------|
G|----------------------------|
D|-12-12-12-7-7-7-9-9-9-5-5-5-|
A|-10-10-10-5-5-5-7-7-7-3-3-3-|
E|----------------------------|

Second Riff
e|-------------------------|
B|-------------------------|
G|-------------------------|
D|-7-7-7-4-4-4-------5-5-5-|
A|-5-5-5-2-2-2-5-5-5-3-3-3-|
E|-------------3-3-3-------|

Outro Solo
e|---------------------|
B|---------------------|
G|---------------------|
D|---------------------| x2 then... |-5-|
A|-5~-5-2~-2------3~-3-|            |-3-|
E|-----------3~-3------|

Great song, wish they made a studio version of this....
Добавлено: 17.08.2013
Другие материалы по этой песне:
  • Аккорды и текст

Страница создана 17.08.2013
http://primanota.ru/casualties/washed-up-chords.htm
Привет, Гость.
Предлагаем пройти революционный курс по гитаре.
Подарок от PrimaNota.Ru, забирай!