PrimaNota.ru - самый крупный в мире бесплатный архив песенных текстов, аккордов, табулатур и нот


Casualties - No Solution No Control - таба, бас-таба, видео

Регистрация Запомнить меня
Войти через:  Facebook Google Twitter Vk Yandex Mail.ru

Casualties - No Solution No Control - таба, бас-таба, видео

Печатать
Просмотров: 95
4/4
  Gtr I
|-7-7-7-7--7-7-7-7--7-7-7-7--7-7-7-7----|
|-7-7-7-7--7-7-7-7--7-7-7-7--7-7-7-7----|
|-8-8-8-8--8-8-8-8--8-8-8-8--8-8-8-8----|
|-9-9-9-9--9-9-9-9--9-9-9-9--9-9-9-9----|
|-9-9-9-9--9-9-9-9--9-9-9-9--9-9-9-9----|
|-7-7-7-7--7-7-7-7--7-7-7-7--7-7-7-7----|


|-----------------------------------------------|
|-----------------------------------------------|
|---------------------------------7-11-8--------|
|-9-9-9-9-9-9-9-9-9-9-9-9-9-9-9-9-7-11-8-7-7----|
|-9-9-9-9-9-9-9-9-9-9-9-9-9-9-9-9-5--9-7-7-7----|
|-7-7-7-7-7-7-7-7-7-7-7-7-7-7-7-7--------5-5----|


|--------------------------------------------------------------------|
|--------------------------------------------------------------------|
|---------------------------------9-9-9-9-9-9-9-9-9-9-9-9-9-9-9-9----|
|-5-5-5-5-5-5-5-5-5-5-5-5-5-5-5-5-9-9-9-9-9-9-9-9-9-9-9-9-9-9-9-9----|
|-5-5-5-5-5-5-5-5-5-5-5-5-5-5-5-5-7-7-7-7-7-7-7-7-7-7-7-7-7-7-7-7----|
|-3-3-3-3-3-3-3-3-3-3-3-3-3-3-3-3------------------------------------|


|------------------------|
|------------------------|
|-9-7-9-9-9---7-9-9-9----|
|-9-7-9-9-9-9-7-9-9-9----|
|-9-5-7-7-7-9-5-7-7-7----|
|-7---------7------------|


|----------------------------------------------------------------------------------------------------|
|----------------------------------------------------------------------------------------------------|
|-11-11-11-11-11-11-11-11-11-11-11-11-11-11-11-11-12-12-12-12-12-12-12-12-12-12-12-12-12-12-12-12----|
|-11-11-11-11-11-11-11-11-11-11-11-11-11-11-11-11-12-12-12-12-12-12-12-12-12-12-12-12-12-12-12-12----|
|--9--9--9--9--9--9--9--9--9--9--9--9--9--9--9--9-10-10-10-10-10-10-10-10-10-10-10-10-10-10-10-10----|
|----------------------------------------------------------------------------------------------------|


|--------------------------------------------------------------------|
|--------------------------------------------------------------------|
|-9-9-9-9-9-9-9-9-9-9-9-9-9-9-9-9-7-7-7-7-7-7-7-7-7-7-7-7-7-7-7-7----|
|-9-9-9-9-9-9-9-9-9-9-9-9-9-9-9-9-7-7-7-7-7-7-7-7-7-7-7-7-7-7-7-7----|
|-7-7-7-7-7-7-7-7-7-7-7-7-7-7-7-7-5-5-5-5-5-5-5-5-5-5-5-5-5-5-5-5----|
|--------------------------------------------------------------------|


|---------------------------------------------------------------------|
|---------------------------------------------------------------------|
|---------------------------------------------------------------------|
|-5-5-5-5-5-5-5-5-5-5-5-5-5-5-5-5-5-7-7-7-7-7-7-7-7-7-7-7-7-7-7-7-7---|
|-5-5-5-5-5-5-5-5-5-5-5-5-5-5-5-5-5-7-7-7-7-7-7-7-7-7-7-7-7-7-7-7-7---|
|-3-3-3-3-3-3-3-3-3-3-3-3-3-3-3-3-3-5-5-5-5-5-5-5-5-5-5-5-5-5-5-5-5---|


|---------------------|
|---------------------|
|---------------------|
|-9-7-9-9--9-7-9-9----|
|-9-7-9-9--9-7-9-9----|
|-7-5-7-7--7-5-7-7----|


|---------------------------------------------------------------------------------|
|---------------------------------------------------------------------------------|
|-11-11-11-11-11-11-11-11-11-11-11-11-12-12-12-12-12-12-12-12-12-12--12-11-9------|
|-11-11-11-11-11-11-11-11-11-11-11-11-12-12-12-12-12-12-12-12-12-12--12-11-9-9----|
|--9--9--9--9--9--9--9--9--9--9--9--9-10-10-10-10-10-10-10-10-10-10--10--9-7-9----|
|----------------------------------------------------------------------------7----|




Добавлено: 27.08.2013
Другие материалы по этой песне:
  • Аккорды и текст

Страница создана 27.08.2013
http://primanota.ru/casualties/no-solution-no-control-2-chords.htm
Привет, Гость.
Предлагаем пройти революционный курс по гитаре.
Подарок от PrimaNota.Ru, забирай!