PrimaNota.ru - самый крупный в мире бесплатный архив песенных текстов, аккордов, табулатур и нот


Casualties - Army - бас-таба, видео

Регистрация Запомнить меня
Войти через:  Facebook Google Twitter Vk Yandex Mail.ru

Casualties - Army - бас-таба, видео

Печатать
Просмотров: 115
CASUALTIES ARMY / CASUALTIES ARMADA

00:25
---------------------------------------|
---------------------------------------|
-14>>>>>>>>>>>>>2222222222222222222222-
---------------------------------------

00:32
---------------0-------------------02020---|
--------0222222-420--------------02-----20-|
22222200-----------22222222222200----------|
-------------------------------------------| x8

00:00
----------------------------------------|
-2--------------------------------------|
----------------------------------------|
----------------------------------------|

ON THE FRONTLINE / BOTAS

01:14
----------------------------------------|
----------5----------------9754---5-----|
-777777-5---7777777-7777777-----5---777-|
----------------------------------------|

----------------------------------------|
----------5----------------9754---5-----|
-777777-5---7777777-7777777-----5---777-|
----------------------------------------|

------7897------------------------------|
-----9----97---5-----------9754---5-----|
-7777--------5---77-7777777-----5---777-|
----------------------------------------|

00:21
-------------------0------------------2-0---|
-------------2-0-2--20------------2-0----20-|
-------2-2222---------------2-2222----------|
-3-3333---------------3-3333----------------|

-------------------0------------------2-0---|
-------------2-0-2--20------------2-0----20-|
-------2-2222---------------2-2222----------|
-3-3333---------------3-3333----------------|

-------------------------75555555-4-5-------|
----------------------5h7-------------------|
-5-3333333333222255555----------------5-3-2-|
--------------------------------------------|

00:37
--------------------------7897----------|
----------5--------------9----97---5----|
-777777-5---7777777--7777--------5--777-|
----------------------------------------|

----------------------------------------|
--------9754---5--------------5---------|
-7777777-----5---777-777777-5---7777777-|
----------------------------------------|

00:47
-------------------0------------------2-0---|
-------------2-0-2--20------------2-0----20-|
-------2-2222---------------2-2222----------|
-3-3333---------------3-3333----------------|

-------------------0------------------2-0---|
-------------2-0-2--20------------2-0----20-|
-------2-2222---------------2-2222----------|
-3-3333---------------3-3333----------------|

-------------------------75555555-4-5-------|
----------------------5h7-------------------|
-5-3333333333222255555----------------5-3-2-|
--------------------------------------------|

01:03
--------------------------7897----------|
----------5--------------9----97---5----|
-777777-5---7777777--7777--------5--777-|
----------------------------------------|

----------------------------------------|
--------9754---5--------------5---------|
-7777777-----5---777-777777-5---7777777-|
----------------------------------------|

01:13
-------------------0------------------2-0---|
-------------2-0-2--20------------2-0----20-|
-------2-2222---------------2-2222----------|
-3-3333---------------3-3333----------------|

-------------------0------------------2-0---|
-------------2-0-2--20------------2-0----20-|
-------2-2222---------------2-2222----------|
-3-3333---------------3-3333----------------|

-------------------------75555555-4-5-------|
----------------------5h7-------------------|
-5-3333333333222255555----------------5-3-2-|
--------------------------------------------|

01:30
----------------9-789-789-789-789-97h9h7h97--------------------|
-----------------9---9---9---9-------------979h7-75h7h5-54h5h4-|
-777777777777777-----------------------------------------------|
---------------------------------------------------------------|

01:40
---------------0-------------------02020---|
--------0222222-420--------------02-----20-|
22222200-----------22222222222200----------|
-------------------------------------------|

---------------0-------------------02020---|
--------0222222-420--------------02-----20-|
22222200-----------22222222222200----------|
-------------------------------------------|

01:51
-------------------------75555555-4-5-------|
----------------------5h7-------------------|
-5-3333333333222255555----------------5-3-2-|
--------------------------------------------|

01:55
--------------------------7897----------|
----------5--------------9----97---5----|
-777777-5---7777777--7777--------5--777-|
----------------------------------------|

----------------------------------------|
--------9754---5--------------5---------|
-7777777-----5---777-777777-5---7777777-|
----------------------------------------|

02:06
-------------------0------------------2-0---|
-------------2-0-2--20------------2-0----20-|
-------2-2222---------------2-2222----------|
-3-3333---------------3-3333----------------|

-------------------0------------------2-0---|
-------------2-0-2--20------------2-0----20-|
-------2-2222---------------2-2222----------|
-3-3333---------------3-3333----------------|

-------------------------75555555-4-5-------|
----------------------5h7-------------------|
-5-3333333333222255555---------------5327>0-|
--------------------------------------------|
Добавлено: 12.10.2013
Другие материалы по этой песне:
  • Аккорды и текст

Страница создана 12.10.2013
http://primanota.ru/casualties/army-chords.htm
Привет, Гость.
Предлагаем пройти революционный курс по гитаре.
Подарок от PrimaNota.Ru, забирай!