PrimaNota.ru - самый крупный в мире бесплатный архив песенных текстов, аккордов, табулатур и нот


Candlemass - Through The Infinitive Halls Of Death - текст песни, таба, видео

Регистрация Запомнить меня
Войти через:  Facebook Google Twitter Vk Yandex Mail.ru

Candlemass - Through The Infinitive Halls Of Death - текст песни, таба, видео

Печатать
Просмотров: 121
Уроки эстрадного вокала в Санкт-Петербурге
Авторы музыки: Leif Edling
Авторы текста: Leif Edling
-----------------------------------------------------------------------------------
Song: Through the Infinitive Halls of Death
Band: Candlemass
Album: Tales of Creation
Tabbed by: TrollFaceJesus
E-mail: trollfacejesus@gmail.com


Hey everyone, this is my tab for this song, and I think it sounds pretty awesome.
All of the rhythm sections in the song are here, but I didn't tab out the solos.
Hopefully everything in here is accurate, and you guys find this tab to be helpful!
If you have any comments, questions or corrections to point out, please feel free
to leave a message here, or to send me an email! :D



Tuning: Eb



Intro (0:00)
============

Riff 1a

 1 e + a 2 e + a 3 e + a 4 e + a 1 e + a 2 e + a 3 e + a 4 e + a
|-------------------------------|-------------------------------|
|-------------------------------|-------------------------------|
|-------------------------------|-------------------------------| x1
|-------------------------------|-------------------------------|
|2------------------------------|3------------------------------|
|0------------------------------|1------------------------------|




Riff 1b

 1 e + a 2 e + a 3 e + a 4 e + a 1 e + a 2 e + a 3 e + a 4 e + a
|-------------------------------|-------------------------------|
|-------------------------------|-------------------------------|
|-------------------------------|-------------------------------| x1
|-------------------------------|-------------------------------|
|2-------1-------------------3--|2------------------------------|
|----------------3-------2------|0------------------------------|




Riff 1a x 1

Riff 1b x 1




Riff 2 (Guitar 1)

 1 e + a 2 e + a 3 e + a 4 e + a 1 e + a 2 e + a 3 e + a 4 e + a
|-------------------------------|-------------------------------|
|-------------------------------|-------------------------------|
|-------------------------------|-------------------------------| x2
|-------------------------------|-------------------------------|
|2------------------------------|2-------1-------------------3--|
|0-------2-------3-------2------|----------------3-------2------|


Riff 2 (Guitar 2)

 1 e + a 2 e + a 3 e + a 4 e + a 1 e + a 2 e + a 3 e + a 4 e + a
|-------------------------------|-------------------------------|
|-------------------------------|-------------------------------|
|-------------------------------|4-------3-------------------5--| x2
|2-------4-------5-------4------|----------------5-------4------|
|-------------------------------|-------------------------------|
|-------------------------------|-------------------------------|




Riff 3

 1 e + a 2 e + a 3 e + a 4 e + a
|-------------------------------|
|-------------------------------|
|-------------------------------| x1
|-------------------------------|
|2------------------------------|
|0------------------------------|




Riff 4a

 1       2       3   +   4       1   +   2       3   +   4       
|-------------------------------|-------------------------------|
|-------------------------------|-------------------------------|
|-------------------------------|-------------------------------| x1
|-------------------------------|-------------------------------|
|-------------------------------|-------------------------------|
|0-0-0---0-0-0---2-/-3---3-3-3--|3-/-7---7-7-7---6-\-3---3-3-3--|
 . . .   . . .           . . .           . . .           . . .




Riff 4b

 1   +   2       3   +   4       1   +   2       3   +   4      
|-------------------------------|-------------------------------|
|-------------------------------|-------------------------------|
|-------------------------------|-------------------------------| x1
|-------------------------------|-------------------------------|
|-------------------------------|-------------------------------|
|0---0---0-0-0---2-/-3---3-3-3--|3-/-7---7-7-7---6-\-3---3-3-3--|
     .   . . .           . . .           . . .           . . .




Verse I (0:58)
==============

Riff 4b x 8




Chorus I (1:22)
===============

Riff 5a

 1 + 2 + 3 + 4 + 1 + 2 + 3 + 4 + 1 + 2 + 3 + 4 + 1 + 2 + 3 + 4 +
|---------------|---------------|---------------|---------------|
|---------------|---------------|---------------|---------------|
|---------------|---------------|---------------|---------------| x1
|---------------|--------2---3--|2-------4------|---------------|
|4--------------|---------------|------------4--|3-------3------|
|------------3--|2--------------|---------------|---------------|




Riff 5b

 1 + 2 + 3 + 4 + 1 + 2 + 3 + 4 + 1 + 2 + 3 + 4 + 1 + 2 + 3 + 4 +
|---------------|---------------|---------------|---------------|
|---------------|---------------|---------------|---------------|
|---------------|---------------|---------------|---------------| x1
|---------------|2--------------|---------------|---------------|
|2-------2---3--|--------3------|2-------2---3--|5-------4------|
|---------------|---------------|---------------|3-------2------|




Riff 5a x 1

Riff 5b x 1

Riff 4b x 2




Verse II (1:53)
===============

Riff 4b x 8




Chorus II (2:18)
================

Riff 5a x 1

Riff 5b x 2

Riff 5a x 1

Riff 5b x 1




Solo (2:42)
===========

Riff 6a

 1 + 2 + 3 + 4 + 1 + 2 + 3 + 4 + 1 + 2 + 3 + 4 + 1 + 2 + 3 + 4 +
|---------------|---------------|---------------|---------------|
|---------------|---------------|---------------|---------------|
|---------------|---------------|---------------|---------------| x1
|---------------|---------------|---------------|5--------------|
|---------------|1---0----------|---------------|3-------3------|
|0---0---0---0--|------------1--|0---0---0---0--|--------1------|
 .   .   .   .                   .   .   .   .




Riff 6b

 1 + 2 + 3 + 4 + 1 + 2 + 3 + 4 + 1 + 2 + 3 + 4 + 1 + 2 + 3 + 4 +
|---------------|---------------|---------------|---------------|
|---------------|---------------|---------------|---------------|
|---------------|---------------|---------------|---------------| x1
|---------------|---------------|---------------|3--------------|
|---------------|1---0----------|---------------|----2----------|
|0---0---0---0--|------------1--|0---0---0---0--|--------1------|
 .   .   .   .                   .   .   .   .




Riff 6a x 1

Riff 6b x 1




Solo II (3:07)
==============

Riff 1a x 1

Riff 1b x 1

Riff 1a x 1




Riff 1c

 1 e + a 2 e + a 3 e + a 4 e + a
|-------------------------------|
|-------------------------------|
|-------------------------------| x1
|-------------------------------|
|2-------1-------------------3--|
|----------------3-------2------|




Riff 4b x 2




Verse III (3:35)
================

Riff 4b x 8




Chorus III (3:59)
=================

Riff 5a x 1

Riff 5b x 1

Riff 5a x 1

Riff 5b x 1

Riff 3 x 1




Verse IV (4:26)
===============

Riff 2 x 4




Ending (4:47)
=============

|---|
|---|
|---| The song then ends on an Eb.
|-2-|
|-2-|
|-0-|




And that's it!



************************************

| /   slide up
| \   slide down
| h   hammer-on
| p   pull-off
| v   vibrato
| +   harmonic
| •   mute note
| b   bend
| pb  pre-bend
| br  bend release
| pbr pre-bend release
| brb bend release bend

************************************
Добавлено: 21.11.2015
Другие материалы по этой песне:
  • Аккорды и текст

Страница создана 11.08.2013
http://primanota.ru/candlemass/through-the-infinitive-halls-of-death-chords.htm
Привет, Гость.
Предлагаем пройти революционный курс по гитаре.
Подарок от PrimaNota.Ru, забирай!