PrimaNota.ru - самый крупный в мире бесплатный архив песенных текстов, аккордов, табулатур и нот


Candlemass - Psalms For The Dead - таба, видео

Регистрация Запомнить меня
Войти через:  Facebook Google Twitter Vk Yandex Mail.ru

Candlemass - Psalms For The Dead - таба, видео

Печатать
Просмотров: 176
-----------------------------------------------------------------------------------
Song: Psalms for the Dead
Band: Candlemass
Album: Psalms for the Dead
Tabbed by: trollfacejesus@gmail.com
E-mail: trollfacejesus@gmail.com


Hey everyone, this is my tab for this song, and I think it sounds pretty awesome.
All of the rhythm sections in the song are here, but I didn't tab out the solos.
Hopefully everything in here is accurate, and you guys find this tab to be helpful!
If you have any comments, questions, or corrections to point out, please feel free
to leave a message here, or to send me an email! :D


Tuning: C#


Riff 1a

 1 e + a 2 e + a 3 e + a 4 e + a 1 e + a 2 e + a 3 e + a 4 e + a
|-------------------------------|-------------------------------|
|-------------------------------|-------------------------------|
|-------------------------------|----0-----------2--------------| x1
|--------4-------4---3----------|2-------------------3----------|
|2-------2-------2---1----------|-------------------------------|
|0------------------------------|-------------------------------|



Riff 1b

 1 e + a 2 e + a 3 e + a 4 e + a 1 e + a 2 e + a 3 e + a 4 e + a
|-------------------------------|-------------------------------|
|-------------------------------|-------------------------------|
|-------------------------------|-------------------------------| x1
|--------4-------4---3----------|-------------------------------|
|2-------2-------2---1----------|----------------2b==3br=2------|
|0------------------------------|3b==4br=3----------------------|



Riff 1a x 1

Riff 1b x 1



Riff 2a (Guitar 1)

 1 e + a 2 e + a 3 e + a 4 e + a 1 e + a 2 e + a 3 e + a 4 e + a
|--------0---------------3------|--------0----------------------|
|----0-------0-------3-------3--|----0-------0------------------|
|----------------0--------------|-------------------------------| x1
|2------------------------------|2------------------------------|
|-------------------------------|-------------------------------|
|-------------------------------|-------------------------------|


Riff 2a (Guitar 2)

 1 e + a 2 e + a 3 e + a 4 e + a 1 e + a 2 e + a 3 e + a 4 e + a
|-------------------------------|-------------------------------|
|-------------------------------|-------------------------------|
|-------------------------------|-------------------------------| x1
|-------------------------------|-------------------------------|
|2---------------5--------------|2------------------------------|
|0---------------3--------------|0------------------------------|



Riff 2b (Guitar 1)

 1 e + a 2 e + a 3 e + a 4 e + a 1 e + a 2 e + a 3 e + a 4 e + a
|--------0---------------3------|-------------------------------|
|------------3-------3-------3--|--------0-------0--------------|
|----2--------------------------|------------0------------------| x1
|0------------------------------|----2--------------------------|
|----------------3--------------|2------------------------------|
|-------------------------------|-------------------------------|


Riff 2b (Guitar 2)

 1 e + a 2 e + a 3 e + a 4 e + a 1 e + a 2 e + a 3 e + a 4 e + a
|-------------------------------|-------------------------------|
|-------------------------------|-------------------------------|
|2------------------------------|-------------------------------| x1
|0---------------5--------------|-------------------------------|
|----------------3--------------|2------------------------------|
|-------------------------------|0------------------------------|



Riff 2a x 1



Riff 2c (Guitar 1)

 1 e + a 2 e + a 3 e + a 4 e + a
|--------0---------------3------|
|------------3-------3-------3--|
|----2--------------------------| x1
|0------------------------------|
|----------------3--------------|
|-------------------------------|


Riff 2c (Guitar 2)

 1 e + a 2 e + a 3 e + a 4 e + a
|-------------------------------|
|-------------------------------|
|2------------------------------| x1
|0---------------5--------------|
|----------------3--------------|
|-------------------------------|



Riff 1a x 1

Riff 1b x 1

Riff 1a x 1

Riff 1b x 1

Riff 2a x 1

Riff 2b x 1

Riff 2a x 1

Riff 2c x 1



Riff 3

 1 e + a 2 e + a 3 e + a 4 e + a
|-------------------------------|
|-------------------------------|
|-------------------------------| x1
|2------------------------------|
|2------------------------------|
|0------------------------------|



Riff 4a

 1 e + a 2 e + a 3 e + a 4 e + a 1 e + a 2 e + a 3 e + a 4 e + a 
|-------------------------------|-------------------------------|
|-------------------------------|-------------------------------|
|-------------------------------|-------------------------------| x1
|2-------2----------------------|----------------2--------------|
|0-------0-------5-------5------|3-------5-------0--------------|
|----------------3-------3------|1-------3----------------------|



Riff 4b (Guitar 1)

 1 e + a 2 e + a 3 e + a 4 e + a 1 e + a 2 e + a 3 e + a 4 e + a 
|-------------------------------|-------------------------------|
|-------------------------------|-------------------------------|
|-------------------------------|-------------------------------| x1
|7---------------8--------------|9------------------------------|
|5---------------6--------------|7------------------------------|
|-------------------------------|-------------------------------|


Riff 4b (Guitar 2)

 1 e + a 2 e + a 3 e + a 4 e + a 1 e + a 2 e + a 3 e + a 4 e + a 
|-------------------------------|-------------------------------|
|-------------------------------|-------------------------------|
|-------------------------------|-------------------------------| x1
|7---------------8--------------|-------------------------------|
|5---------------6--------------|2------------------------------|
|-------------------------------|0------------------------------|



Riff 4a x 1

Riff 4b x 1

Riff 4a x 1

Riff 4b x 1

Riff 4a x 1

Riff 4b x 1



Riff 4c

 1 e + a 2 e + a 3 e + a 4 e + a 1 e + a 2 e + a 3 e + a 4 e + a 
|-------------------------------|-------------------------------|
|-------------------------------|-------------------------------|
|-------------------------------|-------------------------------| x1
|7---------------8-------8------|9------------------------------|
|5---------------6-------6------|7------------------------------|
|-------------------------------|0------------------------------|



Riff 5a

 1 e + a 2 e + a 3 e + a 4 e + a 1 e + a 2 e + a 3 e + a 4 e + a 
|-------------------------------|-------------------------------|
|-------------------------------|-------------------------------|
|-------------------------------|-------------------------------| x1
|----------------3---2---3------|-------------------------------|
|-------------------------------|--------------------2-------1--|
|0---0---0---0------------------|0---0---0---0---4-------3------|
 •   •   •   •                   •   •   •   •   •   •   •   •



Riff 5b

 1 e + a 2 e + a 3 e + a 4 e + a 1 e + a 2 e + a 3 e + a 4 e + a 
|-------------------------------|-------------------------------|
|-------------------------------|-------------------------------|
|-------------------------------|-------------------------------| x1
|----------------3---2---3------|----------------5-/-8---6------|
|-------------------------------|----------------3-/-6---6------|
|0---0---0---0------------------|0---0---0---0------------------|
 •   •   •   •                   •   •   •   •



Riff 5a x 1

Riff 5b x 1

Riff 5a x 1

Riff 5b x 1

Riff 5a x 1

Riff 5b x 1

Riff 5a x 1

Riff 5b x 1

Riff 5a x 1

Riff 5b x 1

Riff 5a x 1

Riff 5b x 1

Riff 2a x 1

Riff 2b x 1

Riff 2a x 1

Riff 2b x 1

Riff 2a x 1

Riff 2b x 1

Riff 2a x 1

Riff 2c x 1

Riff 3 x 1

Riff 4a x 1

Riff 4b x 1

Riff 4a x 1

Riff 4b x 1

Riff 4a x 1

Riff 4b x 1

Riff 4a x 1

Riff 4c x 1



Riff 6a (Guitar 1)

 1 e + a 2 e + a 3 e + a 4 e + a 1 e + a 2 e + a 3 e + a 4 e + a 
|-------------------------------|-------------------------------|
|-------------------------------|-------------------------------|
|-------------------------------|-------------------------------| x1
|9-----------9---12----------12-|9---------------------------9--|
|7-----------7---10----------10-|7---------------------------7--|
|-------------------------------|-------------------------------|


Riff 6a (Guitar 2)

 1 e + a 2 e + a 3 e + a 4 e + a 1 e + a 2 e + a 3 e + a 4 e + a 
|-------------------------------|-------------------------------|
|-------------------------------|-------------------------------|
|-------------------------------|-------------------------------| x1
|-------------------------------|-------------------------------|
|2-----------2---5-----------5--|2---------------------------2--|
|0-----------0---3-----------3--|0---------------------------0--|



Riff 6b (Guitar 1)

 1 e + a 2 e + a 3 e + a 4 e + a 1 e + a 2 e + a 3 e + a 4 e + a 
|-------------------------------|-------------------------------|
|-------------------------------|-------------------------------|
|-------------------------------|-------------------------------| x1
|7-------7---7---5-----------5--|9------------------------------|
|5-------5---5---3-----------3--|7------------------------------|
|-------------------------------|-------------------------------|


Riff 6b (Guitar 2)

 1 e + a 2 e + a 3 e + a 4 e + a 1 e + a 2 e + a 3 e + a 4 e + a 
|-------------------------------|-------------------------------|
|-------------------------------|-------------------------------|
|-------------------------------|-------------------------------| x1
|7-------7---7---5-----------5--|-------------------------------|
|5-------5---5---3-----------3--|2------------------------------|
|-------------------------------|0------------------------------|



Riff 6a x 1

Riff 6b x 1


And that's it!


************************************

| /   slide up
| \   slide down
| h   hammer-on
| p   pull-off
| v   vibrato
| +   harmonic
| ·   mute note
| b   bend
| pb  pre-bend
| br  bend release
| pbr pre-bend release
| brb bend release bend

************************************
Добавлено: 15.06.2015
Другие материалы по этой песне:
  • Аккорды и текст

Страница создана 15.06.2015
http://primanota.ru/candlemass/psalms-for-dead-chords.htm
Привет, Гость.
Предлагаем пройти революционный курс по гитаре.
Подарок от PrimaNota.Ru, забирай!