PrimaNota.ru - самый крупный в мире бесплатный архив песенных текстов, аккордов, табулатур и нот


Candlemass - Somewhere In Nowhere - таба, видео

Регистрация Запомнить меня
Войти через:  Facebook Google Twitter Vk Yandex Mail.ru

Candlemass - Somewhere In Nowhere - таба, видео

Печатать
Просмотров: 118
Авторы музыки: Leif Edling
Авторы текста: Leif Edling
----------------------------------------------------------------------------------
Song: Somewhere in Nowhere
Band: Candlemass
Album: Tales of Creation
Tabbed by: TrollFaceJesus
E-mail: trollfacejesus@gmail.com


Hey everyone, this is my tab for this song, and I think it sounds pretty awesome.
All of the rhythm sections in the song are here, but I didn't tab out the solo.
If you guys have any comments, questions, or corrections to point out, please feel
free to leave a message here, or to send me an email! :D


Tuning: Eb


Riff 1 (Guitar 1)

  1 e & a 2 e & a 3 e & a 4 e & a
|---------------------------------|
|---------------------------------|
|---------------------------------| x8
|---------------------------------|
|-3-----------------------6-5-3-5-|
|-1-------4-------3-------4-3-1-3-|


Riff 1 (Guitar 2)

  1 e & a 2 e & a 3 e & a 4 e & a
|---------------------------------|
|---------------------------------|    
|---------------------------------| x6 (Guitar 2 joins in after Guitar 1 plays "Riff 1" twice.)
|-3-------6-------5-------6-5-3-5-|
|---------------------------------|
|---------------------------------|



Riff 2 (Guitar 1)

  1 e & a 2 e & a 3 e & a 4 e & a 
|---------------------------------|
|---------------------------------|
|---------------------------------| x4
|---------------------------------|
|-3-------6-------5-------6-5-3-5-|
|---------------------------------|


Riff 2 (Guitar 2)

  1 e & a 2 e & a 3 e & a 4 e & a 
|---------------------------------|
|---------------------------------|
|-5-------8-------7-------8-7-5-7-| x4
|---------------------------------|
|---------------------------------|
|---------------------------------|


Riff 1 x 4


Riff 3 (Guitar 1)

  1 e & a 2 e & a 3 e & a 4 e & a 
|---------------------------------|
|---------------------------------|
|---------------------------------| x1
|-------------------------3-------|
|-2-------3-------2---------------|
|-0-------------------------------|


Riff 3 (Guitar 2)

  1 e & a 2 e & a 3 e & a 4 e & a 
|---------------------------------|
|---------------------------------|
|---------5-------4---------------| x1
|-------------------------3-------|
|-2-------------------------------|
|-0-------------------------------|



Riff 4

  1 e & a 2 e & a 3 e & a 4 e & a 
|---------------------------------|
|---------------------------------|
|---------------------------------| x4
|-4---4-------------------6/7\6---|
|-2---2---5\4/5---4---4---4/5\4---|
|---------3\2/3---2---2-----------|


Riff 1 x 6

Riff 2 x 4

Riff 1 x 4

Riff 3 x 1

Riff 4 x 4


Riff 5a

  1 e & a 2 e & a 3 e & a 4 e & a 1 e & a 2 e & a 3 e & a 4 e & a 
|-----------------------------------------------------------------|
|-----------------------------------------------------------------|
|-----------------------------------------------------------------| x1
|-----------------------------------------------------------------|
|-0---0-0-0---0-0-2---2-2-2---2-2-3---3-3-3---3-3-----------------|
|-------------------------------------------------1---1-1-1---1-1-|
  .   . . .   . . .   . . .   . . .   . . .   . . .   . . .   . .


Riff 5b

  1 e & a 2 e & a 3 e & a 4 e & a 1 e & a 2 e & a 3 e & a 4 e & a 
|-----------------------------------------------------------------|
|-----------------------------------------------------------------|
|---------------------------------4-------4-----------------------| x1
|---------------------------------2-------2-------2-3-2-0-2-0-----|
|-0---0-0-0---0-0-2---2-2-2---2-2-----------------------------3-2-|
|-----------------------------------------------------------------|
  .   . . .   . . .   . . .   . .


Riff 5a x 1

Riff 5b x 1

After this, the song fades into silence.


And that's it!


************************************

| /   slide up
| \   slide down
| h   hammer-on
| p   pull-off
| v   vibrato
| +   harmonic
| ·   Mute note
| b   bend
| pb  pre-bend
| br  bend release
| pbr pre-bend release
| brb bend release bend

************************************
Добавлено: 15.06.2015
Другие материалы по этой песне:
  • Аккорды и текст

Страница создана 15.06.2015
http://primanota.ru/candlemass/somewhere-in-nowhere-chords.htm
Привет, Гость.
Предлагаем пройти революционный курс по гитаре.
Подарок от PrimaNota.Ru, забирай!