PrimaNota.ru - самый крупный в мире бесплатный архив песенных текстов, аккордов, табулатур и нот


Candlemass - Dancing In The Temple - таба, видео

Регистрация Запомнить меня
Войти через:  Facebook Google Twitter Vk Yandex Mail.ru

Candlemass - Dancing In The Temple - таба, видео

Печатать
Просмотров: 121
----------------------------------------------------------------------------------
Song: Dancing in the Temple (Of the Mad Queen Bee)
Band: Candlemass
Album: Psalms for the Dead
Tabbed by: TrollFaceJesus
E-mail: trollfacejesus@gmail.com



Hey everyone, this is my tab for this song, and I think it sounds pretty awesome.
All of the rhythm sections in the song are here, but I didn't tab out the solos.
Hopefully everything in here is accurate, and you guys find this tab to be helpful!
If you have any comments, questions, or corrections to point out, please feel free
to leave a message here, or to send me an email! :D



Tuning: C#



Intro (Guitar 1)

 1 + 2 + 3 + 4 + 1 + 2 + 3 + 4 + 1 + 2 + 3 + 4 + 1 + 2 + 3 + 4 +
|---------------|---------------|---------------|---------------|
|---------------|---------------|---------------|---------------|
|---------------|---------------|---------------|5-------8------| x2
|9--------------|8-------5------|9--------------|3-------6------|
|7--------------|6-------3------|7--------------|---------------|
|---------------|---------------|---------------|---------------|


Intro (Guitar 2)

 1 + 2 + 3 + 4 + 1 + 2 + 3 + 4 + 1 + 2 + 3 + 4 + 1 + 2 + 3 + 4 +
|---------------|---------------|---------------|---------------|
|---------------|---------------|---------------|---------------|
|---------------|---------------|---------------|---------------| x2
|9--------------|8-------5------|9--------------|---------------|
|7--------------|6-------3------|7--------------|4-------6------|
|---------------|---------------|---------------|1-------4------|




Riff 1 (Guitar 1)

 1 + 2 + 3 + 4 + 1 + 2 + 3 + 4 +
|---------------|---------------|
|---------------|---------------|
|---------------|---------------| x1 Note: Guitar 1 does a pick slide
|2--------------|---------------|    on the second string starting at
|0--------------|X\\\\\\\\\\\\\\|    the beginning of the second measure.
|---------------|---------------|


Riff 1 (Guitar 2)

 1 + 2 + 3 + 4 + 1 + 2 + 3 + 4 +
|---------------|---------------|
|---------------|---------------|
|---------------|---------------| x1
|2--------------|---------------|
|0--------------|---------------|
|---------------|---------------|




Riff 2a

 1 + 2 + 3 + 4 + 1 + 2 + 3 + 4 + 1 + 2 + 3 + 4 + 1 + 2 + 3 + 4 +
|---------------|---------------|---------------|---------------|
|---------------|---------------|---------------|---------------|
|---------------|---------------|5--------------|---------------| x2
|2--------------|5-------2------|3--------------|2--------------|
|0--------------|3-------0------|---------------|0--------------|
|---------------|---------------|---------------|---------------|




Riff 2b (Guitar 1)

 1 + 2 + 3 + 4 + 1 + 2 + 3 + 4 + 1 + 2 + 3 + 4 + 1 + 2 + 3 + 4 +
|---------------|---------------|---------------|---------------|
|---------------|---------------|---------------|---------------|
|---------------|---------------|5--------------|---------------| x1
|5-------7------|2--------------|3-------5---4--|2--------------|
|3-------5------|0--------------|--------3---2--|0--------------|
|---------------|---------------|---------------|---------------|


Riff 2b (Guitar 2)

 1 + 2 + 3 + 4 + 1 + 2 + 3 + 4 + 1 + 2 + 3 + 4 + 1 + 2 + 3 + 4 +
|---------------|---------------|---------------|---------------|
|---------------|---------------|---------------|---------------|
|---------------|---------------|---------------|---------------| x1
|5-------7------|2--------------|--------5---4--|2--------------|
|3-------5------|0--------------|3-------3---2--|0--------------|
|---------------|---------------|1--------------|---------------|




Riff 2c (Guitar 1)

 1 + 2 + 3 + 4 + 1 + 2 + 3 + 4 + 1 + 2 + 3 + 4 + 1 + 2 + 3 + 4 +
|---------------|---------------|---------------|---------------|
|---------------|---------------|---------------|---------------|
|5--------------|---------------|5-----------5/7|8--------------| x1
|3--------------|2--------------|3-----------3/5|6--------------|
|---------------|0--------------|---------------|---------------|
|---------------|---------------|---------------|---------------|


Riff 2c (Guitar 2)

 1 + 2 + 3 + 4 + 1 + 2 + 3 + 4 + 1 + 2 + 3 + 4 + 1 + 2 + 3 + 4 +
|---------------|---------------|---------------|---------------|
|---------------|---------------|---------------|---------------|
|5--------------|---------------|---------------|---------------| x1
|3--------------|2--------------|---------------|---------------|
|---------------|0--------------|3-----------3/5|6--------------|
|---------------|---------------|1-----------1/3|4--------------|




Riff 1 x 1

Riff 2a x 2

Riff 2b x 1

Riff 2c x 1




Riff 3

 1 + 2 + 3 + 4 + 1 + 2 + 3 + 4 + 1 + 2 + 3 + 4 + 1 + 2 + 3 + 4 +
|---------------|---------------|---------------|---------------|
|---------------|---------------|---------------|---------------|
|4--------------|--------7---6--|4--------------|--------2------| x2
|2--------------|5-------5---4--|2--------------|5-------0------|
|---------------|3--------------|---------------|3--------------|
|---------------|---------------|---------------|---------------|




Riff 4a

 1 + 2 + 3 + 4 + 1 + 2 + 3 + 4 + 1 + 2 + 3 + 4 + 1 + 2 + 3 + 4 +
|---------------|---------------|---------------|---------------|
|---------------|---------------|---------------|---------------|
|2-------1------|---------------|2-------1------|---------------| x1
|------------3-2|3p2------------|------------3-2|3--------------|
|---------------|----3-2-0------|---------------|---------------|
|---------------|---------------|---------------|---------------|




Riff 4b (Guitar 1)

 1 + 2 + 3 + 4 + 1 + 2 + 3 + 4 + 1 + 2 + 3 + 4 + 1 + 2 + 3 + 4 +
|---------------|---------------|---------------|---------------|
|---------------|---------------|---------------|---------------|
|2-------1------|---------------|5--------------|5--------------| x1
|------------3-2|3--------------|3--------------|3--------------|
|---------------|----3-2-0------|---------------|---------------|
|---------------|---------------|---------------|---------------|


Riff 4b (Guitar 2)

 1 + 2 + 3 + 4 + 1 + 2 + 3 + 4 + 1 + 2 + 3 + 4 + 1 + 2 + 3 + 4 +
|---------------|---------------|---------------|---------------|
|---------------|---------------|---------------|---------------|
|2-------1------|---------------|---------------|---------------| x1
|------------3-2|3--------------|---------------|---------------|
|---------------|----3-2-0------|3--------------|3--------------|
|---------------|---------------|1--------------|1--------------|




Riff 5

 1 + 2 + 3 + 4 + 1 + 2 + 3 + 4 + 1 + 2 + 3 + 4 + 1 + 2 + 3 + 4 +
|---------------|---------------|---------------|---------------|
|---------------|---------------|---------------|---------------|
|4--------------|7-------2------|4--------------|--------7---6--| x4
|2--------------|5-------0------|2--------------|5-------5---4--|
|---------------|---------------|---------------|3--------------|
|---------------|---------------|---------------|---------------|




Riff 6a

 1 + 2 + 3 + 4 + 1 + 2 + 3 + 4 + 1 + 2 + 3 + 4 + 1 + 2 + 3 + 4 +
|---------------|---------------|---------------|---------------|
|---------------|---------------|---------------|---------------|
|---------------|---------------|7--------------|---------------| x2
|4--------------|7-------4------|5--------------|7--------------|
|2--------------|5-------2------|---------------|2--------------|
|---------------|---------------|---------------|---------------|




Riff 6b (Guitar 1)

 1 + 2 + 3 + 4 + 1 + 2 + 3 + 4 + 1 + 2 + 3 + 4 + 1 + 2 + 3 + 4 +
|---------------|---------------|---------------|---------------|
|---------------|---------------|---------------|---------------|
|2-------4------|---------------|7--------------|---------------| x1
|0-------2------|4--------------|5-------7---6--|4--------------|
|---------------|2--------------|--------5---4--|2--------------|
|---------------|---------------|---------------|---------------|


Riff 6b (Guitar 2)

 1 + 2 + 3 + 4 + 1 + 2 + 3 + 4 + 1 + 2 + 3 + 4 + 1 + 2 + 3 + 4 +
|---------------|---------------|---------------|---------------|
|---------------|---------------|---------------|---------------|
|2-------4------|---------------|---------------|---------------| x1
|0-------2------|4--------------|--------7---6--|4--------------|
|---------------|2--------------|5-------5---4--|2--------------|
|---------------|---------------|3--------------|---------------|




Riff 6c (Guitar 1)

 1 + 2 + 3 + 4 + 1 + 2 + 3 + 4 + 1 + 2 + 3 + 4 + 1 + 2 + 3 + 4 +
|---------------|---------------|---------------|---------------|
|---------------|---------------|---------------|---------------|
|7--------------|---------------|7-----------7/9|10-------------| x1
|5--------------|4--------------|5-----------5/7|8--------------|
|---------------|2--------------|---------------|---------------|
|---------------|---------------|---------------|---------------|


Riff 6c (Guitar 2)

 1 + 2 + 3 + 4 + 1 + 2 + 3 + 4 + 1 + 2 + 3 + 4 + 1 + 2 + 3 + 4 +
|---------------|---------------|---------------|---------------|
|---------------|---------------|---------------|---------------|
|7--------------|---------------|---------------|---------------| x1
|5--------------|4--------------|---------------|---------------|
|---------------|2--------------|5-----------5/7|8--------------|
|---------------|---------------|3-----------3/5|6--------------|




Riff 7a (Guitar 1)

 1 e + a 2 e + a 3 e + a 4 e + a 1 e + a 2 e + a 3 e + a 4 e + a
|-------------------------------|-------------------------------|
|-------------------------------|-------------------------------|
|6---------------6--------------|9---------------11----9-----8--| x1
|4-------4-4-4---4-------4-4-4--|7-------7-7-7---9-----7-----6--|
|-------------------------------|-------------------------------|
|-------------------------------|-------------------------------|
         • • •           • • •           • • •

Riff 7a (Guitar 2)

 1 e + a 2 e + a 3 e + a 4 e + a 1 e + a 2 e + a 3 e + a 4 e + a
|-------------------------------|-------------------------------|
|-------------------------------|-------------------------------|
|-------------------------------|-------------------------------| x1
|-------------------------------|-------------------------------|
|-4--------------4--------------|7---------------9-----7-----6--|
|-2------2-2-2---2-------2-2-2--|5-------5-5-5---7-----5-----4--|
         • • •           • • •           • • •




Riff 7b (Guitar 1)

 1 e + a 2 e + a 3 e + a 4 e + a 1 e + a 2 e + a 3 e + a 4 e + a
|-------------------------------|-------------------------------|
|-------------------------------|-------------------------------|
|6---------------6--------------|9---------------8--------------| x1
|4-------4-4-4---4-------4-4-4--|7-------7-7-7---6-------6-6-6--|
|-------------------------------|-------------------------------|
|-------------------------------|-------------------------------|
         • • •           • • •           • • •           • • •

Riff 7b (Guitar 2)

 1 e + a 2 e + a 3 e + a 4 e + a 1 e + a 2 e + a 3 e + a 4 e + a
|-------------------------------|-------------------------------|
|-------------------------------|-------------------------------|
|-------------------------------|-------------------------------| x1
|-------------------------------|-------------------------------|
|-4--------------4--------------|7---------------6--------------|
|-2------2-2-2---2-------2-2-2--|5-------5-5-5---4-------4-4-4--|
         • • •           • • •           • • •           • • •




Riff 7a x 1




Riff 7c (Guitar 1)

 1 e + a 2 e + a 3 e + a 4 e + a 1 e + a 2 e + a 3 e + a 4 e + a
|-------------------------------|-------------------------------|
|-------------------------------|-------------------------------|
|6---------------6--------------|-------------------------------| x1
|4-------4-4-4---4-------4-4-4--|7---------------6--------------|
|-------------------------------|5-------5-5-5---4-------4-4-4--|
|-------------------------------|-------------------------------|
         • • •           • • •           • • •           • • •

Riff 7c (Guitar 2)

 1 e + a 2 e + a 3 e + a 4 e + a 1 e + a 2 e + a 3 e + a 4 e + a
|-------------------------------|-------------------------------|
|-------------------------------|-------------------------------|
|-------------------------------|-------------------------------| x1
|-------------------------------|7---------------6-------6-6-6--|
|-4--------------4--------------|5-------5-5-5---4-------4-4-4--|
|-2------2-2-2---2-------2-2-2--|-------------------------------|
         • • •           • • •           • • •           • • •




Riff 7a x 1

Riff 7b x 1

Riff 7a x 1

Riff 7c x 1

Riff 2b x 1

Riff 2c x 1

Riff 4b x 1




Riff 8 (Guitar 1)

 1 + 2 + 3 + 4 + 1 + 2 + 3 + 4 + 1 + 2 + 3 + 4 + 1 + 2 + 3 + 4 +
|---------------|---------------|---------------|---------------|
|---------------|---------------|---------------|---------------|
|2-------1------|---------------|5-----------5/7|8--------------| x1
|------------3-2|3--------------|3-----------3/5|6--------------|
|---------------|----3-2-0------|---------------|---------------|
|---------------|---------------|---------------|---------------|


Riff 8 (Guitar 1)

 1 + 2 + 3 + 4 + 1 + 2 + 3 + 4 + 1 + 2 + 3 + 4 + 1 + 2 + 3 + 4 +
|---------------|---------------|---------------|---------------|
|---------------|---------------|---------------|---------------|
|2-------1------|---------------|---------------|---------------| x1
|------------3-2|3--------------|---------------|---------------|
|---------------|----3-2-0------|3-----------3/5|6--------------|
|---------------|---------------|1-----------1/3|4--------------|




Ending (Guitar 1)

 1 + 2 + 3 + 4 + 1 + 2 + 3 + 4 +
|---------------|---------------|
|---------------|---------------|
|9\------9\-----|9\------9\-----| x1
|7\------7\-----|7\------7\-----|
|---------------|---------------|
|---------------|---------------|


Ending (Guitar 2)

 1 + 2 + 3 + 4 + 1 + 2 + 3 + 4 +
|---------------|---------------|
|---------------|---------------|
|---------------|---------------| x1
|---------------|---------------|
|7\------7\-----|7\------7\-----|
|5\------5\-----|5\------5\-----|



And that's it!



************************************

| /   slide up
| \   slide down
| h   hammer-on
| p   pull-off
| v   vibrato
| +   harmonic
| •   mute note
| b   bend
| pb  pre-bend
| br  bend release
| pbr pre-bend release
| brb bend release bend

************************************
Добавлено: 15.06.2015
Другие материалы по этой песне:
  • Аккорды и текст

Страница создана 15.06.2015
http://primanota.ru/candlemass/dancing-in-temple-chords.htm
Привет, Гость.
Предлагаем пройти революционный курс по гитаре.
Подарок от PrimaNota.Ru, забирай!