PrimaNota.ru - самый крупный в мире бесплатный архив песенных текстов, аккордов, табулатур и нот


Candlemass - Demonia 6 - таба, видео

Регистрация Запомнить меня
Войти через:  Facebook Google Twitter Vk Yandex Mail.ru

Candlemass - Demonia 6 - таба, видео

Печатать
Просмотров: 89
-----------------------------------------------------------------------------------
Song: Demonia 6
Band: Candlemass
Album: King of the Grey Islands
Tabbed by: TrollFaceJesus
E-mail: trollfacejesus@gmail.com


Hey everyone, this is my tab for this song, and I think it sounds pretty awesome.
All of the rhythm sections in the song are in here, but I didn't tab out the solo.
Hopefully everything in here is accurate, and you guys find this tab to be helpful!
If you have any comments, questions or corrections to point out, please feel free
to leave a message here, or to send me an email! :D



Tuning: C#



Intro/Main Riff: (0:00)
=======================

Riff 1a (Guitar 1 & 2)

 1 e + a 2 e + a 3 e + a 4 e + a 1 e + a 2 e + a 3 e + a 4 e + a
|-------------------------------|-------------------------------|
|-------------------------------|-------------------------------|
|-------------------------------|-------------------------------| x1
|-------------------------------|------------------------3---2--|
|-------------------------------|-------------------------------|
|1---0---0---5---4---0---1---0--|1---0---0---5---4---0----------|




Riff 1b (Guitar 1 & 2)

 1 e + a 2 e + a 3 e + a 4 e + a 1 e + a 2 e + a 3 e + a 4 e + a
|-------------------------------|-------------------------------|
|-------------------------------|-------------------------------|
|-------------------------------|------------5-----------3------| x1
|-------------------------------|------------3-----------1------|
|-------------------------------|-------------------------------|
|1---0---0---5---4---0---1---0--|1---0---0----------------------|




Riff 1a x 1

Riff 1b x 1




Verse I (0:21)
==============

Riff 1a x 1

Riff 1b x 1

Riff 1a x 1

Riff 1b x 1




Chorus I (0:39)
===============

Riff 2a (Guitar 1 & 2)

 1 e + a 2 e + a 3 e + a 4 e + a 1 e + a 2 e + a 3 e + a 4 e + a
|-------------------------------|-------------------------------|
|-------------------------------|-------------------------------|
|-------------------------------|-------------------------------| x5
|-------------------------------|-------------------------------|
|-------------------------------|-------------------------------|
|0-------3-------0-------3------|0-------2-------0-------1------|




Riff 2b (Guitar 1 & 2)

 1 e + a 2 e + a 3 e + a 4 e + a 1 e + a 2 e + a 3 e + a 4 e + a
|-------------------------------|-------------------------------|
|-------------------------------|-------------------------------|
|-------------------------------|-------------------------------| x1
|-------------------------------|-------------------------------|
|-------------------------------|-------------------------------|
|0-------3-------0-------3------|0-------2-------0-------1---0--|




Verse II (1:06)
===============

Riff 1a x 1

Riff 1b x 1

Riff 1a x 1

Riff 1b x 1

Riff 1a x 1

Riff 1b x 1

Riff 1a x 1

Riff 1b x 1




Chorus II (1:42)
================

Riff 2a x 10




Solo (2:29)
===========

Riff 2a x 4 (plays under solo)




Bridge (2:47)
=============

Riff 3a (Guitar 1 & 2)

 1 e + a 2 e + a 3 e + a 4 e + a 1 e + a 2 e + a 3 e + a 4 e + a
|-------------------------------|-------------------------------|
|-------------------------------|-------------------------------|
|-------------------------------|-------------------------------| x3
|-------------------------------|-------------------------------|
|2-----------------------2------|-------------------------------|
|----------------3--------------|2------------------------------|




Riff 3b (Guitar 1 & 2)

 1 e + a 2 e + a 3 e + a 4 e + a 1 e + a 2 e + a 3 e + a 4 e + a
|-------------------------------|-------------------------------|
|-------------------------------|-------------------------------|    Note: On the last note, bend it a 1/2
|-------------------------------|-------------------------------| x1 step until about halfway through the
|-------------------------------|-------------------------------|    measure, and then bring it back down
|2-----------------------2------|-------------------------------|    during the second half of the measure.
|----------------3--------------|1b-----------------------------|




Riff 3c (Guitar 1 & 2)

 1 e + a 2 e + a 3 e + a 4 e + a 1 e + a 2 e + a 3 e + a 4 e + a
|-------------------------------|-------------------------------|
|-------------------------------|-------------------------------|
|-------------------------------|-------------------------------| x3
|4-----------------------4------|-------------------------------|
|2---------------5-------2------|4------------------------------|
|----------------3--------------|2------------------------------|




Riff 3d (Guitar 1 & 2)

 1 e + a 2 e + a 3 e + a 4 e + a 1 e + a 2 e + a 3 e + a 4 e + a
|-------------------------------|-------------------------------|
|-------------------------------|-------------------------------|
|-------------------------------|-------------------------------| x1
|4-----------------------4------|-------------------------------|
|2---------------5-------2------|3------------------------------|
|----------------3--------------|1------------------------------|




Main Riff (3:19)
================

Riff 1a x 1

Riff 1b x 1

Riff 1a x 1

Riff 1b x 1




Verse III (3:37)
================

Riff 1a x 1

Riff 1b x 1

Riff 1a x 1

Riff 1b x 1




Chorus III/Ending (3:56)
========================

Riff 2a x 32 (basically, play this riff until the end of the song,
              or as many times as you can before going insane.)



And that's it!



************************************

| /   slide up
| \   slide down
| h   hammer-on
| p   pull-off
| v   vibrato
| +   harmonic
| •   mute note
| b   bend
| pb  pre-bend
| br  bend release
| pbr pre-bend release
| brb bend release bend

************************************
Добавлено: 21.11.2015
Вам также может быть интересно:
Другие материалы по этой песне:
  • Аккорды и текст

Страница создана 21.11.2015
http://primanota.ru/candlemass/demonia-6-chords.htm
Привет, Гость.
Предлагаем пройти революционный курс по гитаре.
Подарок от PrimaNota.Ru, забирай!